  0
SECTION
  2
HEADER
  9
$ACADVER
  1
AC1015
  9
$ACADMAINTVER
 70
     6
  9
$DWGCODEPAGE
  3
ANSI_1254
  9
$INSBASE
 10
0.0
 20
0.0
 30
0.0
  9
$EXTMIN
 10
0.0
 20
0.0
 30
0.0
  9
$EXTMAX
 10
279.4
 20
215.9
 30
0.0
  9
$LIMMIN
 10
0.0
 20
0.0
  9
$LIMMAX
 10
279.4
 20
215.9
  9
$ORTHOMODE
 70
     0
  9
$REGENMODE
 70
     1
  9
$FILLMODE
 70
     1
  9
$QTEXTMODE
 70
     0
  9
$MIRRTEXT
 70
     1
  9
$LTSCALE
 40
1.0
  9
$ATTMODE
 70
     1
  9
$TEXTSIZE
 40
3.5
  9
$TRACEWID
 40
1.0
  9
$TEXTSTYLE
  7
Standard
  9
$CLAYER
  8
0
  9
$CELTYPE
  6
ByLayer
  9
$CECOLOR
 62
   256
  9
$CELTSCALE
 40
1.0
  9
$DISPSILH
 70
     0
  9
$DIMSCALE
 40
1.0
  9
$DIMASZ
 40
3.5
  9
$DIMEXO
 40
1.0
  9
$DIMDLI
 40
3.75
  9
$DIMRND
 40
0.0
  9
$DIMDLE
 40
0.0
  9
$DIMEXE
 40
1.0
  9
$DIMTP
 40
0.0
  9
$DIMTM
 40
0.0
  9
$DIMTXT
 40
3.5
  9
$DIMCEN
 40
2.5
  9
$DIMTSZ
 40
0.0
  9
$DIMTOL
 70
     0
  9
$DIMLIM
 70
     0
  9
$DIMTIH
 70
     1
  9
$DIMTOH
 70
     1
  9
$DIMSE1
 70
     0
  9
$DIMSE2
 70
     0
  9
$DIMTAD
 70
     1
  9
$DIMZIN
 70
     0
  9
$DIMBLK
  1

  9
$DIMASO
 70
     1
  9
$DIMSHO
 70
     1
  9
$DIMPOST
  1

  9
$DIMAPOST
  1

  9
$DIMALT
 70
     0
  9
$DIMALTD
 70
     3
  9
$DIMALTF
 40
0.0393700787
  9
$DIMLFAC
 40
1.0
  9
$DIMTOFL
 70
     1
  9
$DIMTVP
 40
0.0
  9
$DIMTIX
 70
     0
  9
$DIMSOXD
 70
     0
  9
$DIMSAH
 70
     0
  9
$DIMBLK1
  1

  9
$DIMBLK2
  1

  9
$DIMSTYLE
  2
ISO-25
  9
$DIMCLRD
 70
     0
  9
$DIMCLRE
 70
     0
  9
$DIMCLRT
 70
     0
  9
$DIMTFAC
 40
1.0
  9
$DIMGAP
 40
1.524
  9
$DIMJUST
 70
     0
  9
$DIMSD1
 70
     0
  9
$DIMSD2
 70
     0
  9
$DIMTOLJ
 70
     0
  9
$DIMTZIN
 70
     0
  9
$DIMALTZ
 70
     0
  9
$DIMALTTZ
 70
     0
  9
$DIMUPT
 70
     0
  9
$DIMDEC
 70
     2
  9
$DIMTDEC
 70
     2
  9
$DIMALTU
 70
     2
  9
$DIMALTTD
 70
     3
  9
$DIMTXSTY
  7
Standard
  9
$DIMAUNIT
 70
     0
  9
$DIMADEC
 70
     2
  9
$DIMALTRND
 40
0.0
  9
$DIMAZIN
 70
     0
  9
$DIMDSEP
 70
    44
  9
$DIMATFIT
 70
     3
  9
$DIMFRAC
 70
     0
  9
$DIMLDRBLK
  1

  9
$DIMLUNIT
 70
     2
  9
$DIMLWD
 70
    -2
  9
$DIMLWE
 70
    -2
  9
$DIMTMOVE
 70
     0
  9
$LUNITS
 70
     2
  9
$LUPREC
 70
     2
  9
$SKETCHINC
 40
1.0
  9
$FILLETRAD
 40
10.0
  9
$AUNITS
 70
     0
  9
$AUPREC
 70
     2
  9
$MENU
  1
.
  9
$ELEVATION
 40
0.0
  9
$PELEVATION
 40
0.0
  9
$THICKNESS
 40
0.0
  9
$LIMCHECK
 70
     0
  9
$CHAMFERA
 40
0.0
  9
$CHAMFERB
 40
0.0
  9
$CHAMFERC
 40
0.0
  9
$CHAMFERD
 40
0.0
  9
$SKPOLY
 70
     0
  9
$TDCREATE
 40
2459741.614468866
  9
$TDUCREATE
 40
2459741.489468866
  9
$TDUPDATE
 40
2459741.614468982
  9
$TDUUPDATE
 40
2459741.489468982
  9
$TDINDWG
 40
0.0000000116
  9
$TDUSRTIMER
 40
0.0000000116
  9
$USRTIMER
 70
     1
  9
$ANGBASE
 50
0.0
  9
$ANGDIR
 70
     0
  9
$PDMODE
 70
     0
  9
$PDSIZE
 40
-1.0
  9
$PLINEWID
 40
0.0
  9
$SPLFRAME
 70
     0
  9
$SPLINETYPE
 70
     6
  9
$SPLINESEGS
 70
     8
  9
$HANDSEED
  5
13F
  9
$SURFTAB1
 70
     6
  9
$SURFTAB2
 70
     6
  9
$SURFTYPE
 70
     6
  9
$SURFU
 70
     6
  9
$SURFV
 70
     6
  9
$UCSBASE
  2

  9
$UCSNAME
  2

  9
$UCSORG
 10
0.0
 20
0.0
 30
0.0
  9
$UCSXDIR
 10
1.0
 20
0.0
 30
0.0
  9
$UCSYDIR
 10
0.0
 20
1.0
 30
0.0
  9
$UCSORTHOREF
  2

  9
$UCSORTHOVIEW
 70
     0
  9
$UCSORGTOP
 10
0.0
 20
0.0
 30
0.0
  9
$UCSORGBOTTOM
 10
0.0
 20
0.0
 30
0.0
  9
$UCSORGLEFT
 10
0.0
 20
0.0
 30
0.0
  9
$UCSORGRIGHT
 10
0.0
 20
0.0
 30
0.0
  9
$UCSORGFRONT
 10
0.0
 20
0.0
 30
0.0
  9
$UCSORGBACK
 10
0.0
 20
0.0
 30
0.0
  9
$PUCSBASE
  2

  9
$PUCSNAME
  2

  9
$PUCSORG
 10
0.0
 20
0.0
 30
0.0
  9
$PUCSXDIR
 10
1.0
 20
0.0
 30
0.0
  9
$PUCSYDIR
 10
0.0
 20
1.0
 30
0.0
  9
$PUCSORTHOREF
  2

  9
$PUCSORTHOVIEW
 70
     0
  9
$PUCSORGTOP
 10
0.0
 20
0.0
 30
0.0
  9
$PUCSORGBOTTOM
 10
0.0
 20
0.0
 30
0.0
  9
$PUCSORGLEFT
 10
0.0
 20
0.0
 30
0.0
  9
$PUCSORGRIGHT
 10
0.0
 20
0.0
 30
0.0
  9
$PUCSORGFRONT
 10
0.0
 20
0.0
 30
0.0
  9
$PUCSORGBACK
 10
0.0
 20
0.0
 30
0.0
  9
$USERI1
 70
     0
  9
$USERI2
 70
     0
  9
$USERI3
 70
     0
  9
$USERI4
 70
     0
  9
$USERI5
 70
     0
  9
$USERR1
 40
0.0
  9
$USERR2
 40
0.0
  9
$USERR3
 40
0.0
  9
$USERR4
 40
0.0
  9
$USERR5
 40
0.0
  9
$WORLDVIEW
 70
     1
  9
$SHADEDGE
 70
     3
  9
$SHADEDIF
 70
    70
  9
$TILEMODE
 70
     1
  9
$MAXACTVP
 70
    64
  9
$PINSBASE
 10
0.0
 20
0.0
 30
0.0
  9
$PLIMCHECK
 70
     0
  9
$PEXTMIN
 10
1.0000000000E+20
 20
1.0000000000E+20
 30
1.0000000000E+20
  9
$PEXTMAX
 10
-1.0000000000E+20
 20
-1.0000000000E+20
 30
-1.0000000000E+20
  9
$PLIMMIN
 10
0.0
 20
0.0
  9
$PLIMMAX
 10
420.0
 20
297.0
  9
$UNITMODE
 70
     0
  9
$VISRETAIN
 70
     1
  9
$PLINEGEN
 70
     0
  9
$PSLTSCALE
 70
     1
  9
$TREEDEPTH
 70
  3020
  9
$CMLSTYLE
  2
Standard
  9
$CMLJUST
 70
     0
  9
$CMLSCALE
 40
20.0
  9
$PROXYGRAPHICS
 70
     1
  9
$MEASUREMENT
 70
     1
  9
$CELWEIGHT
370
    -1
  9
$ENDCAPS
280
     0
  9
$JOINSTYLE
280
     0
  9
$LWDISPLAY
290
     1
  9
$INSUNITS
 70
     4
  9
$HYPERLINKBASE
  1

  9
$STYLESHEET
  1

  9
$XEDIT
290
     1
  9
$CEPSNTYPE
380
     0
  9
$PSTYLEMODE
290
     1
  9
$FINGERPRINTGUID
  2
{f65ce1b9-08eb-48a7-a4f8-f8810b20b2b5}
  9
$VERSIONGUID
  2
{FAEB1C32-E019-11D5-929B-00C0DF256EC4}
  9
$EXTNAMES
290
     1
  9
$PSVPSCALE
 40
0.0
  9
$OLESTARTUP
290
     0
  0
ENDSEC
  0
SECTION
  2
CLASSES
  0
CLASS
  1
ACDBDICTIONARYWDFLT
  2
AcDbDictionaryWithDefault
  3
ObjectDBX Classes
 90
        0
280
     0
281
     0
  0
CLASS
  1
VISUALSTYLE
  2
AcDbVisualStyle
  3
ObjectDBX Classes
 90
     4095
280
     0
281
     0
  0
CLASS
  1
MATERIAL
  2
AcDbMaterial
  3
ObjectDBX Classes
 90
     1153
280
     0
281
     0
  0
CLASS
  1
SCALE
  2
AcDbScale
  3
ObjectDBX Classes
 90
     1153
280
     0
281
     0
  0
CLASS
  1
TABLESTYLE
  2
AcDbTableStyle
  3
ObjectDBX Classes
 90
     4095
280
     0
281
     0
  0
CLASS
  1
MLEADERSTYLE
  2
AcDbMLeaderStyle
  3
ACDB_MLEADERSTYLE_CLASS
 90
     4095
280
     0
281
     0
  0
CLASS
  1
SUN
  2
AcDbSun
  3
SCENEOE
 90
     1153
280
     0
281
     0
  0
CLASS
  1
ACDBPLACEHOLDER
  2
AcDbPlaceHolder
  3
ObjectDBX Classes
 90
        0
280
     0
281
     0
  0
CLASS
  1
LAYOUT
  2
AcDbLayout
  3
ObjectDBX Classes
 90
        0
280
     0
281
     0
  0
ENDSEC
  0
SECTION
  2
TABLES
  0
TABLE
  2
VPORT
  5
8
330
0
100
AcDbSymbolTable
 70
     1
  0
VPORT
  5
29
330
8
100
AcDbSymbolTableRecord
100
AcDbViewportTableRecord
  2
*Active
 70
     0
 10
0.0
 20
0.0
 11
1.0
 21
1.0
 12
139.7
 22
107.95
 13
0.0
 23
0.0
 14
10.0
 24
10.0
 15
10.0
 25
10.0
 16
0.0
 26
0.0
 36
1.0
 17
0.0
 27
0.0
 37
0.0
 40
215.9
 41
1.2941176471
 42
50.0
 43
0.0
 44
0.0
 50
0.0
 51
0.0
 71
     0
 72
  2000
 73
     1
 74
     3
 75
     0
 76
     0
 77
     0
 78
     0
281
     0
 65
     1
110
0.0
120
0.0
130
0.0
111
1.0
121
0.0
131
0.0
112
0.0
122
1.0
132
0.0
 79
     0
146
0.0
  0
ENDTAB
  0
TABLE
  2
LTYPE
  5
5
330
0
100
AcDbSymbolTable
 70
     6
  0
LTYPE
  5
14
330
5
100
AcDbSymbolTableRecord
100
AcDbLinetypeTableRecord
  2
ByBlock
 70
     0
  3

 72
    65
 73
     0
 40
0.0
  0
LTYPE
  5
15
330
5
100
AcDbSymbolTableRecord
100
AcDbLinetypeTableRecord
  2
ByLayer
 70
     0
  3

 72
    65
 73
     0
 40
0.0
  0
LTYPE
  5
16
330
5
100
AcDbSymbolTableRecord
100
AcDbLinetypeTableRecord
  2
Continuous
 70
     0
  3
Solid line
 72
    65
 73
     0
 40
0.0
  0
LTYPE
  5
6E
330
5
100
AcDbSymbolTableRecord
100
AcDbLinetypeTableRecord
  2
HIDDEN
 70
     0
  3
Hidden __ __ __ __ __ __ __ __ __ __ __ __ __ __
 72
    65
 73
     2
 40
1.905
 49
1.27
 74
     0
 49
-0.635
 74
     0
  0
LTYPE
  5
6F
330
5
100
AcDbSymbolTableRecord
100
AcDbLinetypeTableRecord
  2
PHANTOM
 70
     0
  3
Phantom ______  __  __  ______  __  __  ______
 72
    65
 73
     6
 40
12.7
 49
6.35
 74
     0
 49
-1.27
 74
     0
 49
1.27
 74
     0
 49
-1.27
 74
     0
 49
1.27
 74
     0
 49
-1.27
 74
     0
  0
LTYPE
  5
70
330
5
100
AcDbSymbolTableRecord
100
AcDbLinetypeTableRecord
  2
CENTER
 70
     0
  3
Center ____ _ ____ _ ____ _ ____ _ ____ _ ____
 72
    65
 73
     4
 40
10.16
 49
6.35
 74
     0
 49
-1.27
 74
     0
 49
1.27
 74
     0
 49
-1.27
 74
     0
  0
LTYPE
  5
71
330
5
100
AcDbSymbolTableRecord
100
AcDbLinetypeTableRecord
  2
CENTERX2
 70
     0
  3
Center (2x) ________  __  ________  __  _____
 72
    65
 73
     4
 40
20.32
 49
12.7
 74
     0
 49
-2.54
 74
     0
 49
2.54
 74
     0
 49
-2.54
 74
     0
  0
LTYPE
  5
72
330
5
100
AcDbSymbolTableRecord
100
AcDbLinetypeTableRecord
  2
DOT2
 70
     0
  3
Dot (.5x) ........................................
 72
    65
 73
     2
 40
0.635
 49
0.0
 74
     0
 49
-0.635
 74
     0
  0
ENDTAB
  0
TABLE
  2
LAYER
  5
2
330
0
100
AcDbSymbolTable
 70
    17
  0
LAYER
  5
10
330
2
100
AcDbSymbolTableRecord
100
AcDbLayerTableRecord
  2
0
 70
     0
 62
     7
  6
Continuous
370
    -3
390
F
  0
LAYER
  5
73
330
2
100
AcDbSymbolTableRecord
100
AcDbLayerTableRecord
  2
FORMAT
 70
     0
 62
     7
  6
Continuous
370
    -3
390
F
  0
LAYER
  5
74
330
2
100
AcDbSymbolTableRecord
100
AcDbLayerTableRecord
  2
YARDIMCI_GEOMETRI
 70
     0
 62
    -6
  6
Continuous
290
     0
370
    -3
390
F
  0
LAYER
  5
75
330
2
100
AcDbSymbolTableRecord
100
AcDbLayerTableRecord
  2
SAYFA_CERCEVESI
 70
     0
 62
     7
  6
Continuous
370
    25
390
F
  0
LAYER
  5
76
330
2
100
AcDbSymbolTableRecord
100
AcDbLayerTableRecord
  2
ANTET
 70
     0
 62
     7
  6
Continuous
370
    -3
390
F
  0
LAYER
  5
77
330
2
100
AcDbSymbolTableRecord
100
AcDbLayerTableRecord
  2
OLCU
 70
     0
 62
   150
  6
Continuous
370
    -3
390
F
  0
LAYER
  5
78
330
2
100
AcDbSymbolTableRecord
100
AcDbLayerTableRecord
  2
METIN
 70
     0
 62
    96
  6
Continuous
370
    -3
390
F
  0
LAYER
  5
79
330
2
100
AcDbSymbolTableRecord
100
AcDbLayerTableRecord
  2
BALON
 70
     0
 62
     5
  6
Continuous
370
    -3
390
F
  0
LAYER
  5
7A
330
2
100
AcDbSymbolTableRecord
100
AcDbLayerTableRecord
  2
VURGU
 70
     0
 62
     7
  6
Continuous
370
    -3
390
F
  0
LAYER
  5
7B
330
2
100
AcDbSymbolTableRecord
100
AcDbLayerTableRecord
  2
SILIK
 70
     0
 62
     7
  6
Continuous
370
    -3
390
F
  0
LAYER
  5
7C
330
2
100
AcDbSymbolTableRecord
100
AcDbLayerTableRecord
  2
MODEL
 70
     0
 62
     7
  6
Continuous
370
    -3
390
F
  0
LAYER
  5
7D
330
2
100
AcDbSymbolTableRecord
100
AcDbLayerTableRecord
  2
DETAYLANDıRMA
 70
     0
 62
   190
  6
Continuous
370
    -3
390
F
  0
LAYER
  5
7E
330
2
100
AcDbSymbolTableRecord
100
AcDbLayerTableRecord
  2
TOLERANS
 70
     0
 62
   230
  6
Continuous
370
    -3
390
F
  0
LAYER
  5
7F
330
2
100
AcDbSymbolTableRecord
100
AcDbLayerTableRecord
  2
MERKEZ_CIZGILERI
 70
     0
 62
    30
  6
Continuous
370
    -3
390
F
  0
LAYER
  5
80
330
2
100
AcDbSymbolTableRecord
100
AcDbLayerTableRecord
  2
KESIT-DETAY_CIZGILERI
 70
     0
 62
     7
  6
Continuous
370
    -3
390
F
  0
LAYER
  5
81
330
2
100
AcDbSymbolTableRecord
100
AcDbLayerTableRecord
  2
\U+041E\U+0421\U+0415\U+0412\U+042B\U+0415
 70
     0
 62
     7
  6
Continuous
370
    -3
390
F
  0
LAYER
  5
82
330
2
100
AcDbSymbolTableRecord
100
AcDbLayerTableRecord
  2
\U+0412\U+041E\U+0414\U+042F\U+041D\U+042B\U+0415_\U+0417\U+041D\U+0410\U+041A\U+0418
 70
     0
 62
    11
  6
Continuous
370
    -3
390
F
  0
ENDTAB
  0
TABLE
  2
STYLE
  5
3
330
0
100
AcDbSymbolTable
 70
     1
  0
STYLE
  5
11
330
3
100
AcDbSymbolTableRecord
100
AcDbTextStyleTableRecord
  2
Standard
 70
     0
 40
0.0
 41
1.0
 50
0.0
 71
     0
 42
3.5
  3
txt
  4

  0
ENDTAB
  0
TABLE
  2
VIEW
  5
6
330
0
100
AcDbSymbolTable
 70
     0
  0
ENDTAB
  0
TABLE
  2
UCS
  5
7
330
0
100
AcDbSymbolTable
 70
     0
  0
ENDTAB
  0
TABLE
  2
APPID
  5
9
330
0
100
AcDbSymbolTable
 70
     1
  0
APPID
  5
12
330
9
100
AcDbSymbolTableRecord
100
AcDbRegAppTableRecord
  2
ACAD
 70
     0
  0
ENDTAB
  0
TABLE
  2
DIMSTYLE
  5
A
330
0
100
AcDbSymbolTable
 70
     1
100
AcDbDimStyleTable
  0
DIMSTYLE
105
27
330
A
100
AcDbSymbolTableRecord
100
AcDbDimStyleTableRecord
  2
ISO-25
 70
     0
 41
2.5
 42
0.625
 43
3.75
 44
1.25
 73
     0
 74
     0
 77
     1
 78
     8
140
2.5
141
2.5
143
0.0393700787
147
0.625
171
     3
172
     1
178
     0
271
     2
272
     2
274
     3
278
    44
283
     0
284
     8
340
11
  0
ENDTAB
  0
TABLE
  2
BLOCK_RECORD
  5
1
330
0
100
AcDbSymbolTable
 70
     5
  0
BLOCK_RECORD
  5
1F
330
1
100
AcDbSymbolTableRecord
100
AcDbBlockTableRecord
  2
*Model_Space
340
22
  0
BLOCK_RECORD
  5
1B
330
1
100
AcDbSymbolTableRecord
100
AcDbBlockTableRecord
  2
*Paper_Space
340
1E
  0
BLOCK_RECORD
  5
23
330
1
100
AcDbSymbolTableRecord
100
AcDbBlockTableRecord
  2
*Paper_Space0
340
26
  0
BLOCK_RECORD
  5
C4
330
1
100
AcDbSymbolTableRecord
100
AcDbBlockTableRecord
  2
SW_CENTERMARKSYMBOL_0
340
0
102
{BLKREFS
331
CF
102
}
  0
BLOCK_RECORD
  5
EF
330
1
100
AcDbSymbolTableRecord
100
AcDbBlockTableRecord
  2
SW_CENTERMARKSYMBOL_1
340
0
102
{BLKREFS
331
FA
102
}
  0
BLOCK_RECORD
  5
FB
330
1
100
AcDbSymbolTableRecord
100
AcDbBlockTableRecord
  2
SW_CENTERMARKSYMBOL_2
340
0
102
{BLKREFS
331
106
102
}
  0
BLOCK_RECORD
  5
107
330
1
100
AcDbSymbolTableRecord
100
AcDbBlockTableRecord
  2
SW_CENTERMARKSYMBOL_3
340
0
102
{BLKREFS
331
112
102
}
  0
ENDTAB
  0
ENDSEC
  0
SECTION
  2
BLOCKS
  0
BLOCK
  5
20
330
1F
100
AcDbEntity
  8
0
100
AcDbBlockBegin
  2
*Model_Space
 70
     0
 10
0.0
 20
0.0
 30
0.0
  3
*Model_Space
  1

  0
ENDBLK
  5
21
330
1F
100
AcDbEntity
  8
0
100
AcDbBlockEnd
  0
BLOCK
  5
1C
330
1B
100
AcDbEntity
 67
     1
  8
0
100
AcDbBlockBegin
  2
*Paper_Space
 70
     0
 10
0.0
 20
0.0
 30
0.0
  3
*Paper_Space
  1

  0
ENDBLK
  5
1D
330
1B
100
AcDbEntity
 67
     1
  8
0
100
AcDbBlockEnd
  0
BLOCK
  5
24
330
23
100
AcDbEntity
  8
0
100
AcDbBlockBegin
  2
*Paper_Space0
 70
     0
 10
0.0
 20
0.0
 30
0.0
  3
*Paper_Space0
  1

  0
ENDBLK
  5
25
330
23
100
AcDbEntity
  8
0
100
AcDbBlockEnd
  0
BLOCK
  5
C5
330
C4
100
AcDbEntity
  8
0
100
AcDbBlockBegin
  2
SW_CENTERMARKSYMBOL_0
 70
     0
 10
0.0
 20
0.0
 30
0.0
  3
SW_CENTERMARKSYMBOL_0
  1

  0
LINE
  5
C7
330
C4
100
AcDbEntity
  8
FORMAT
 62
     0
100
AcDbLine
 10
0.0
 20
0.0
 30
0.0
 11
0.0
 21
2.5
 31
0.0
  0
LINE
  5
C8
330
C4
100
AcDbEntity
  8
FORMAT
 62
     0
100
AcDbLine
 10
0.0
 20
0.0
 30
0.0
 11
-2.5
 21
0.0
 31
0.0
  0
LINE
  5
C9
330
C4
100
AcDbEntity
  8
FORMAT
 62
     0
100
AcDbLine
 10
0.0
 20
0.0
 30
0.0
 11
0.0
 21
-2.5
 31
0.0
  0
LINE
  5
CA
330
C4
100
AcDbEntity
  8
FORMAT
 62
     0
100
AcDbLine
 10
0.0
 20
0.0
 30
0.0
 11
2.5
 21
0.0
 31
0.0
  0
LINE
  5
CB
330
C4
100
AcDbEntity
  8
FORMAT
 62
     0
100
AcDbLine
 10
0.0
 20
5.0
 30
0.0
 11
0.0
 21
15.5
 31
0.0
  0
LINE
  5
CC
330
C4
100
AcDbEntity
  8
FORMAT
 62
     0
100
AcDbLine
 10
-5.0
 20
0.0
 30
0.0
 11
-15.5
 21
0.0
 31
0.0
  0
LINE
  5
CD
330
C4
100
AcDbEntity
  8
FORMAT
 62
     0
100
AcDbLine
 10
0.0
 20
-5.0
 30
0.0
 11
0.0
 21
-15.5
 31
0.0
  0
LINE
  5
CE
330
C4
100
AcDbEntity
  8
FORMAT
 62
     0
100
AcDbLine
 10
5.0
 20
0.0
 30
0.0
 11
15.5
 21
0.0
 31
0.0
  0
ENDBLK
  5
C6
330
C4
100
AcDbEntity
  8
0
100
AcDbBlockEnd
  0
BLOCK
  5
F0
330
EF
100
AcDbEntity
  8
0
100
AcDbBlockBegin
  2
SW_CENTERMARKSYMBOL_1
 70
     0
 10
0.0
 20
0.0
 30
0.0
  3
SW_CENTERMARKSYMBOL_1
  1

  0
LINE
  5
F2
330
EF
100
AcDbEntity
  8
FORMAT
 62
     0
100
AcDbLine
 10
0.0
 20
0.0
 30
0.0
 11
0.0
 21
2.5
 31
0.0
  0
LINE
  5
F3
330
EF
100
AcDbEntity
  8
FORMAT
 62
     0
100
AcDbLine
 10
0.0
 20
0.0
 30
0.0
 11
-2.5
 21
0.0
 31
0.0
  0
LINE
  5
F4
330
EF
100
AcDbEntity
  8
FORMAT
 62
     0
100
AcDbLine
 10
0.0
 20
0.0
 30
0.0
 11
0.0
 21
-2.5
 31
0.0
  0
LINE
  5
F5
330
EF
100
AcDbEntity
  8
FORMAT
 62
     0
100
AcDbLine
 10
0.0
 20
0.0
 30
0.0
 11
2.5
 21
0.0
 31
0.0
  0
LINE
  5
F6
330
EF
100
AcDbEntity
  8
FORMAT
 62
     0
100
AcDbLine
 10
0.0
 20
5.0
 30
0.0
 11
0.0
 21
18.5
 31
0.0
  0
LINE
  5
F7
330
EF
100
AcDbEntity
  8
FORMAT
 62
     0
100
AcDbLine
 10
-5.0
 20
0.0
 30
0.0
 11
-18.5
 21
0.0
 31
0.0
  0
LINE
  5
F8
330
EF
100
AcDbEntity
  8
FORMAT
 62
     0
100
AcDbLine
 10
0.0
 20
-5.0
 30
0.0
 11
0.0
 21
-18.5
 31
0.0
  0
LINE
  5
F9
330
EF
100
AcDbEntity
  8
FORMAT
 62
     0
100
AcDbLine
 10
5.0
 20
0.0
 30
0.0
 11
18.5
 21
0.0
 31
0.0
  0
ENDBLK
  5
F1
330
EF
100
AcDbEntity
  8
0
100
AcDbBlockEnd
  0
BLOCK
  5
FC
330
FB
100
AcDbEntity
  8
0
100
AcDbBlockBegin
  2
SW_CENTERMARKSYMBOL_2
 70
     0
 10
0.0
 20
0.0
 30
0.0
  3
SW_CENTERMARKSYMBOL_2
  1

  0
LINE
  5
FE
330
FB
100
AcDbEntity
  8
FORMAT
 62
     0
100
AcDbLine
 10
0.0
 20
0.0
 30
0.0
 11
0.0
 21
2.5
 31
0.0
  0
LINE
  5
FF
330
FB
100
AcDbEntity
  8
FORMAT
 62
     0
100
AcDbLine
 10
0.0
 20
0.0
 30
0.0
 11
-2.5
 21
0.0
 31
0.0
  0
LINE
  5
100
330
FB
100
AcDbEntity
  8
FORMAT
 62
     0
100
AcDbLine
 10
0.0
 20
0.0
 30
0.0
 11
0.0
 21
-2.5
 31
0.0
  0
LINE
  5
101
330
FB
100
AcDbEntity
  8
FORMAT
 62
     0
100
AcDbLine
 10
0.0
 20
0.0
 30
0.0
 11
2.5
 21
0.0
 31
0.0
  0
LINE
  5
102
330
FB
100
AcDbEntity
  8
FORMAT
 62
     0
100
AcDbLine
 10
0.0
 20
5.0
 30
0.0
 11
0.0
 21
9.5
 31
0.0
  0
LINE
  5
103
330
FB
100
AcDbEntity
  8
FORMAT
 62
     0
100
AcDbLine
 10
-5.0
 20
0.0
 30
0.0
 11
-9.5
 21
0.0
 31
0.0
  0
LINE
  5
104
330
FB
100
AcDbEntity
  8
FORMAT
 62
     0
100
AcDbLine
 10
0.0
 20
-5.0
 30
0.0
 11
0.0
 21
-9.5
 31
0.0
  0
LINE
  5
105
330
FB
100
AcDbEntity
  8
FORMAT
 62
     0
100
AcDbLine
 10
5.0
 20
0.0
 30
0.0
 11
9.5
 21
0.0
 31
0.0
  0
ENDBLK
  5
FD
330
FB
100
AcDbEntity
  8
0
100
AcDbBlockEnd
  0
BLOCK
  5
108
330
107
100
AcDbEntity
  8
0
100
AcDbBlockBegin
  2
SW_CENTERMARKSYMBOL_3
 70
     0
 10
0.0
 20
0.0
 30
0.0
  3
SW_CENTERMARKSYMBOL_3
  1

  0
LINE
  5
10A
330
107
100
AcDbEntity
  8
FORMAT
 62
     0
100
AcDbLine
 10
0.0
 20
0.0
 30
0.0
 11
0.0
 21
2.5
 31
0.0
  0
LINE
  5
10B
330
107
100
AcDbEntity
  8
FORMAT
 62
     0
100
AcDbLine
 10
0.0
 20
0.0
 30
0.0
 11
-2.5
 21
0.0
 31
0.0
  0
LINE
  5
10C
330
107
100
AcDbEntity
  8
FORMAT
 62
     0
100
AcDbLine
 10
0.0
 20
0.0
 30
0.0
 11
0.0
 21
-2.5
 31
0.0
  0
LINE
  5
10D
330
107
100
AcDbEntity
  8
FORMAT
 62
     0
100
AcDbLine
 10
0.0
 20
0.0
 30
0.0
 11
2.5
 21
0.0
 31
0.0
  0
LINE
  5
10E
330
107
100
AcDbEntity
  8
FORMAT
 62
     0
100
AcDbLine
 10
0.0
 20
5.0
 30
0.0
 11
0.0
 21
9.5
 31
0.0
  0
LINE
  5
10F
330
107
100
AcDbEntity
  8
FORMAT
 62
     0
100
AcDbLine
 10
-5.0
 20
0.0
 30
0.0
 11
-9.5
 21
0.0
 31
0.0
  0
LINE
  5
110
330
107
100
AcDbEntity
  8
FORMAT
 62
     0
100
AcDbLine
 10
0.0
 20
-5.0
 30
0.0
 11
0.0
 21
-9.5
 31
0.0
  0
LINE
  5
111
330
107
100
AcDbEntity
  8
FORMAT
 62
     0
100
AcDbLine
 10
5.0
 20
0.0
 30
0.0
 11
9.5
 21
0.0
 31
0.0
  0
ENDBLK
  5
109
330
107
100
AcDbEntity
  8
0
100
AcDbBlockEnd
  0
ENDSEC
  0
SECTION
  2
ENTITIES
  0
LINE
  5
83
330
1F
100
AcDbEntity
  8
0
  6
Continuous
 62
     7
370
    25
100
AcDbLine
 10
171.1807140607
 20
13.2384285714
 30
0.0
 11
211.1807140607
 21
13.2384285714
 31
0.0
  0
LINE
  5
84
330
1F
100
AcDbEntity
  8
0
  6
Continuous
 62
     7
370
    25
100
AcDbLine
 10
71.1807140607
 20
13.2384285714
 30
0.0
 11
111.1807140607
 21
13.2384285714
 31
0.0
  0
LINE
  5
85
330
1F
100
AcDbEntity
  8
0
  6
Continuous
 62
     7
370
    25
100
AcDbLine
 10
74.2018624718
 20
137.2384285714
 30
0.0
 11
71.1807140607
 21
137.2384285714
 31
0.0
  0
LINE
  5
86
330
1F
100
AcDbEntity
  8
0
  6
Continuous
 62
     7
370
    25
100
AcDbLine
 10
125.2367939176
 20
137.2384285714
 30
0.0
 11
88.1807140607
 21
137.2384285714
 31
0.0
  0
LINE
  5
87
330
1F
100
AcDbEntity
  8
0
  6
Continuous
 62
     7
370
    25
100
AcDbLine
 10
194.1807140607
 20
137.2384285714
 30
0.0
 11
157.1408238706
 21
137.2384285714
 31
0.0
  0
LINE
  5
88
330
1F
100
AcDbEntity
  8
0
  6
Continuous
 62
     7
370
    25
100
AcDbLine
 10
211.1807140607
 20
137.2384285714
 30
0.0
 11
208.1595656497
 21
137.2384285714
 31
0.0
  0
LINE
  5
89
330
1F
100
AcDbEntity
  8
0
  6
Continuous
 62
     7
370
    25
100
AcDbLine
 10
125.1807140607
 20
185.2384285714
 30
0.0
 11
125.1807140607
 21
137.2239861748
 31
0.0
  0
LINE
  5
8A
330
1F
100
AcDbEntity
  8
0
  6
Continuous
 62
     7
370
    25
100
AcDbLine
 10
157.1807140607
 20
137.228177247
 30
0.0
 11
157.1807140607
 21
185.2384285714
 31
0.0
  0
LINE
  5
8B
330
1F
100
AcDbEntity
  8
0
  6
Continuous
 62
     7
370
    25
100
AcDbLine
 10
88.1807140607
 20
137.2384285714
 30
0.0
 11
88.1807140607
 21
152.2384285714
 31
0.0
  0
LINE
  5
8C
330
1F
100
AcDbEntity
  8
0
  6
Continuous
 62
     7
370
    25
100
AcDbLine
 10
74.1807140607
 20
152.2384285714
 30
0.0
 11
74.1807140607
 21
137.2360482634
 31
0.0
  0
LINE
  5
8D
330
1F
100
AcDbEntity
  8
0
  6
Continuous
 62
     7
370
    25
100
AcDbLine
 10
208.1807140607
 20
137.2360482634
 30
0.0
 11
208.1807140607
 21
152.2384285714
 31
0.0
  0
LINE
  5
8E
330
1F
100
AcDbEntity
  8
0
  6
Continuous
 62
     7
370
    25
100
AcDbLine
 10
194.1807140607
 20
152.2384285714
 30
0.0
 11
194.1807140607
 21
137.2384285714
 31
0.0
  0
LINE
  5
8F
330
1F
100
AcDbEntity
  8
0
  6
Continuous
 62
     7
370
    25
100
AcDbLine
 10
211.1807140607
 20
77.2384285714
 30
0.0
 11
71.1807140607
 21
77.2384285714
 31
0.0
  0
LINE
  5
90
330
1F
100
AcDbEntity
  8
0
  6
Continuous
 62
     7
370
    25
100
AcDbLine
 10
71.1807140607
 20
84.2384285714
 30
0.0
 11
71.1807140607
 21
77.2384285714
 31
0.0
  0
LINE
  5
91
330
1F
100
AcDbEntity
  8
0
  6
Continuous
 62
     7
370
    25
100
AcDbLine
 10
211.1807140607
 20
84.2384285714
 30
0.0
 11
71.1807140607
 21
84.2384285714
 31
0.0
  0
LINE
  5
92
330
1F
100
AcDbEntity
  8
0
  6
Continuous
 62
     7
370
    25
100
AcDbLine
 10
211.1807140607
 20
84.2384285714
 30
0.0
 11
211.1807140607
 21
77.2384285714
 31
0.0
  0
LINE
  5
93
330
1F
100
AcDbEntity
  8
0
  6
Continuous
 62
     7
370
    25
100
AcDbLine
 10
71.1807140607
 20
73.2384285714
 30
0.0
 11
71.1807140607
 21
66.2384285714
 31
0.0
  0
LINE
  5
94
330
1F
100
AcDbEntity
  8
0
  6
Continuous
 62
     7
370
    25
100
AcDbLine
 10
211.1807140607
 20
73.2384285714
 30
0.0
 11
71.1807140607
 21
73.2384285714
 31
0.0
  0
LINE
  5
95
330
1F
100
AcDbEntity
  8
0
  6
Continuous
 62
     7
370
    25
100
AcDbLine
 10
211.1807140607
 20
73.2384285714
 30
0.0
 11
211.1807140607
 21
66.2384285714
 31
0.0
  0
LINE
  5
96
330
1F
100
AcDbEntity
  8
0
  6
Continuous
 62
     7
370
    25
100
AcDbLine
 10
211.1807140607
 20
66.2384285714
 30
0.0
 11
71.1807140607
 21
66.2384285714
 31
0.0
  0
SPLINE
  5
97
330
1F
100
AcDbEntity
  8
0
  6
Continuous
 62
     7
370
    25
100
AcDbSpline
210
0.0
220
0.0
230
1.0
 70
     8
 71
     3
 72
    26
 73
    22
 74
     0
 42
0.00000001
 43
0.00000001
 40
0.0
 40
0.0
 40
0.0
 40
0.0
 40
0.0526960293194616
 40
0.1069261577738099
 40
0.159620509845921
 40
0.2138316374991834
 40
0.2667338849629484
 40
0.3211615515449456
 40
0.3741979743412318
 40
0.4287849627735889
 40
0.4815919296251918
 40
0.5359446590735523
 40
0.588516333562455
 40
0.6426064104423954
 40
0.6953039244738571
 40
0.7495128534725687
 40
0.8025004035952301
 40
0.8570232074488796
 40
0.9100141405947579
 40
0.9645581875437107
 40
1.0
 40
1.0
 40
1.0
 40
1.0
 10
194.1807140607425
 20
137.2384285714285
 30
0.0
 10
194.1992787077788
 20
137.2363185485032
 30
0.0
 10
194.2369484601996
 20
137.2320370751716
 30
0.0
 10
194.5399189036849
 20
137.1984962384172
 30
0.0
 10
195.0189695578967
 20
137.1485549987052
 30
0.0
 10
195.6703899526464
 20
137.0865098519474
 30
0.0
 10
196.4835854126655
 20
137.0187456750517
 30
0.0
 10
197.4240814068316
 20
136.9537251084573
 30
0.0
 10
198.4816351294377
 20
136.8978564622658
 30
0.0
 10
199.6062463516993
 20
136.8584948062187
 30
0.0
 10
200.784918102975
 20
136.8394859599672
 30
0.0
 10
201.9607571914613
 20
136.8432067093051
 30
0.0
 10
203.1230509597216
 20
136.869142373056
 30
0.0
 10
204.2191295245642
 20
136.9138444543315
 30
0.0
 10
205.2396944200556
 20
136.9730757529128
 30
0.0
 10
206.1397990541458
 20
137.0394129433294
 30
0.0
 10
206.9084842337941
 20
137.1064351376091
 30
0.0
 10
207.5120014910397
 20
137.1658138925299
 30
0.0
 10
207.9328935812901
 20
137.210643818626
 30
0.0
 10
208.1592913892104
 20
137.2360013531402
 30
0.0
 10
208.1594881525032
 20
137.2360336269244
 30
0.0
 10
208.1595656496541
 20
137.2360463382706
 30
0.0
  0
SPLINE
  5
98
330
1F
100
AcDbEntity
  8
0
  6
Continuous
 62
     7
370
    25
100
AcDbSpline
210
0.0
220
0.0
230
1.0
 70
     8
 71
     3
 72
    17
 73
    13
 74
     0
 42
0.00000001
 43
0.00000001
 40
0.0
 40
0.0
 40
0.0
 40
0.0
 40
0.1034019522046562
 40
0.2098683689777708
 40
0.3132523532881942
 40
0.4195181781426583
 40
0.5250845255289724
 40
0.6336191929373793
 40
0.7406478820208043
 40
0.8509107034021277
 40
0.9556086724816468
 40
1.0
 40
1.0
 40
1.0
 40
1.0
 10
141.1807140607425
 20
135.1383450989163
 30
0.0
 10
140.3107506116959
 20
135.14941640836
 30
0.0
 10
138.5450411040038
 20
135.1718871413187
 30
0.0
 10
135.9850122542017
 20
135.3473608916971
 30
0.0
 10
133.5517956156455
 20
135.6071381716157
 30
0.0
 10
131.337053482542
 20
135.9300786211817
 30
0.0
 10
129.3606208364662
 20
136.2847063563549
 30
0.0
 10
127.7101442112704
 20
136.6287051271166
 30
0.0
 10
126.4107421850716
 20
136.9295745002651
 30
0.0
 10
125.5751583913402
 20
137.1368039457475
 30
0.0
 10
125.1767954297681
 20
137.2394272790362
 30
0.0
 10
125.2230281333432
 20
137.2275265472805
 30
0.0
 10
125.2367939175631
 20
137.223983105242
 30
0.0
  0
SPLINE
  5
99
330
1F
100
AcDbEntity
  8
0
  6
Continuous
 62
     7
370
    25
100
AcDbSpline
210
0.0
220
0.0
230
1.0
 70
     8
 71
     3
 72
    17
 73
    13
 74
     0
 42
0.00000001
 43
0.00000001
 40
0.0
 40
0.0
 40
0.0
 40
0.0
 40
0.0769355415102316
 40
0.1829737408436827
 40
0.2854511601817036
 40
0.390761203937126
 40
0.4958369615121994
 40
0.6038399737833129
 40
0.7109084307491171
 40
0.8211802593646733
 40
0.9096466689257249
 40
1.0
 40
1.0
 40
1.0
 40
1.0
 10
157.1408238706418
 20
137.2281617997871
 30
0.0
 10
157.1338905224628
 20
137.2263460438933
 30
0.0
 10
157.1174011259112
 20
137.2220276802109
 30
0.0
 10
156.5878452509557
 20
137.0866509851359
 30
0.0
 10
155.646795263891
 20
136.8572125405737
 30
0.0
 10
154.3120997801304
 20
136.5547990242255
 30
0.0
 10
152.6024790649347
 20
136.2082948663227
 30
0.0
 10
150.5651677426374
 20
135.8561954543281
 30
0.0
 10
148.2243905943817
 20
135.5341960391329
 30
0.0
 10
145.8239727250388
 20
135.3031495591639
 30
0.0
 10
143.4448991770664
 20
135.1634188021791
 30
0.0
 10
141.9407331299953
 20
135.1467615894581
 30
0.0
 10
141.1807140607425
 20
135.1383450989163
 30
0.0
  0
SPLINE
  5
9A
330
1F
100
AcDbEntity
  8
0
  6
Continuous
 62
     7
370
    25
100
AcDbSpline
210
0.0
220
0.0
230
1.0
 70
     8
 71
     3
 72
    26
 73
    22
 74
     0
 42
0.00000001
 43
0.00000001
 40
0.0
 40
0.0
 40
0.0
 40
0.0
 40
0.0172625859923656
 40
0.0715050667727889
 40
0.1240809296838448
 40
0.1781693097138905
 40
0.2309707421223736
 40
0.2852893186057153
 40
0.3383249760031923
 40
0.3929046932315746
 40
0.4458168968044057
 40
0.5002807212462466
 40
0.5529012908368003
 40
0.6070492236464874
 40
0.659666254177645
 40
0.7137929726767323
 40
0.766698393252215
 40
0.8211294337855747
 40
0.87416699446849
 40
0.9287551708005655
 40
1.0
 40
1.0
 40
1.0
 40
1.0
 10
74.20186247183084
 20
137.2360463382706
 30
0.0
 10
74.19599205740441
 20
137.2367074846704
 30
0.0
 10
74.17167563252279
 20
137.2394460846397
 30
0.0
 10
74.3303682530978
 20
137.2215256605279
 30
0.0
 10
74.67775944119927
 20
137.183779156867
 30
0.0
 10
75.2169928796556
 20
137.1289480000326
 30
0.0
 10
75.92632988621955
 20
137.0640458487109
 30
0.0
 10
76.77991935695582
 20
136.9966947744173
 30
0.0
 10
77.76790858514639
 20
136.9335654680065
 30
0.0
 10
78.84506495300525
 20
136.8828683391161
 30
0.0
 10
79.99859994216685
 20
136.8496412327246
 30
0.0
 10
81.1725328438366
 20
136.8382070591889
 30
0.0
 10
82.35511578190481
 20
136.8495289132156
 30
0.0
 10
83.491451734692
 20
136.8819783103626
 30
0.0
 10
84.57220856521394
 20
136.9324108247227
 30
0.0
 10
85.54986973741771
 20
136.9944581802673
 30
0.0
 10
86.41403865204205
 20
137.062209046351
 30
0.0
 10
87.12642705455774
 20
137.1272234223163
 30
0.0
 10
87.67221578687557
 20
137.1825036011087
 30
0.0
 10
88.08827615076765
 20
137.2278532690978
 30
0.0
 10
88.1472971972139
 20
137.2346055356756
 30
0.0
 10
88.18071406074243
 20
137.2384285714285
 30
0.0
  0
LINE
  5
9B
330
1F
100
AcDbEntity
  8
0
  6
Continuous
 62
     7
370
    25
100
AcDbLine
 10
111.1807140607
 20
65.2384285714
 30
0.0
 11
171.1807140607
 21
65.2384285714
 31
0.0
  0
LINE
  5
9C
330
1F
100
AcDbEntity
  8
0
  6
Continuous
 62
     7
370
    25
100
AcDbLine
 10
111.1807140607
 20
13.2384285714
 30
0.0
 11
111.1807140607
 21
65.2384285714
 31
0.0
  0
LINE
  5
9D
330
1F
100
AcDbEntity
  8
0
  6
Continuous
 62
     7
370
    25
100
AcDbLine
 10
171.1807140607
 20
65.2384285714
 30
0.0
 11
171.1807140607
 21
13.2384285714
 31
0.0
  0
LINE
  5
9E
330
1F
100
AcDbEntity
  8
0
  6
Continuous
 62
     7
370
    25
100
AcDbLine
 10
71.1807140607
 20
66.2384285714
 30
0.0
 11
71.1807140607
 21
13.2384285714
 31
0.0
  0
LINE
  5
9F
330
1F
100
AcDbEntity
  8
0
  6
Continuous
 62
     7
370
    25
100
AcDbLine
 10
71.1807140607
 20
137.2384285714
 30
0.0
 11
71.1807140607
 21
84.2384285714
 31
0.0
  0
LINE
  5
A0
330
1F
100
AcDbEntity
  8
0
  6
Continuous
 62
     7
370
    25
100
AcDbLine
 10
211.1807140607
 20
66.2384285714
 30
0.0
 11
211.1807140607
 21
13.2384285714
 31
0.0
  0
LINE
  5
A1
330
1F
100
AcDbEntity
  8
0
  6
Continuous
 62
     7
370
    25
100
AcDbLine
 10
211.1807140607
 20
137.2384285714
 30
0.0
 11
211.1807140607
 21
84.2384285714
 31
0.0
  0
LINE
  5
A2
330
1F
100
AcDbEntity
  8
0
  6
Continuous
 62
     7
370
    25
100
AcDbLine
 10
71.1807140607
 20
77.2384285714
 30
0.0
 11
71.1807140607
 21
73.2384285714
 31
0.0
  0
LINE
  5
A3
330
1F
100
AcDbEntity
  8
0
  6
Continuous
 62
     7
370
    25
100
AcDbLine
 10
211.1807140607
 20
77.2384285714
 30
0.0
 11
211.1807140607
 21
73.2384285714
 31
0.0
  0
LINE
  5
A4
330
1F
100
AcDbEntity
  8
0
  6
Continuous
 62
     7
370
    25
100
AcDbLine
 10
141.1807140607
 20
185.2384285714
 30
0.0
 11
157.1807140607
 21
185.2384285714
 31
0.0
  0
LINE
  5
A5
330
1F
100
AcDbEntity
  8
0
  6
Continuous
 62
     7
370
    25
100
AcDbLine
 10
125.1807140607
 20
185.2384285714
 30
0.0
 11
141.1807140607
 21
185.2384285714
 31
0.0
  0
LINE
  5
A6
330
1F
100
AcDbEntity
  8
0
  6
Continuous
 62
     7
370
    25
100
AcDbLine
 10
88.1807140607
 20
152.2384285714
 30
0.0
 11
74.1807140607
 21
152.2384285714
 31
0.0
  0
LINE
  5
A7
330
1F
100
AcDbEntity
  8
0
  6
Continuous
 62
     7
370
    25
100
AcDbLine
 10
194.1807140607
 20
152.2384285714
 30
0.0
 11
208.1807140607
 21
152.2384285714
 31
0.0
  0
LINE
  5
A8
330
1F
100
AcDbEntity
  8
0
  6
Continuous
 62
     7
370
    25
100
AcDbLine
 10
357.3302119483
 20
136.8420503105
 30
0.0
 11
357.3302119483
 21
152.2384285714
 31
0.0
  0
LINE
  5
A9
330
1F
100
AcDbEntity
  8
0
  6
Continuous
 62
     7
370
    25
100
AcDbLine
 10
343.3302119483
 20
152.2384285714
 30
0.0
 11
343.3302119483
 21
136.844591067
 31
0.0
  0
LINE
  5
AA
330
1F
100
AcDbEntity
  8
0
  6
Continuous
 62
     7
370
    25
100
AcDbLine
 10
334.3302119483
 20
185.2384285714
 30
0.0
 11
334.3302119483
 21
135.1474837141
 31
0.0
  0
LINE
  5
AB
330
1F
100
AcDbEntity
  8
0
  6
Continuous
 62
     7
370
    25
100
AcDbLine
 10
366.3302119483
 20
135.1383450989
 30
0.0
 11
366.3302119483
 21
185.2384285714
 31
0.0
  0
LINE
  5
AC
330
1F
100
AcDbEntity
  8
0
  6
Continuous
 62
     7
370
    25
100
AcDbLine
 10
411.6735082405
 20
84.2384285714
 30
0.0
 11
426.6735082405
 21
84.2384285714
 31
0.0
  0
LINE
  5
AD
330
1F
100
AcDbEntity
  8
0
  6
Continuous
 62
     7
370
    25
100
AcDbLine
 10
426.6735082405
 20
84.2384285714
 30
0.0
 11
426.6735082405
 21
77.2384285714
 31
0.0
  0
LINE
  5
AE
330
1F
100
AcDbEntity
  8
0
  6
Continuous
 62
     7
370
    25
100
AcDbLine
 10
426.6735082405
 20
77.2384285714
 30
0.0
 11
405.2938362829
 21
77.2384285714
 31
0.0
  0
ARC
  5
AF
330
1F
100
AcDbEntity
  8
0
  6
Continuous
 62
     7
370
    25
100
AcDbCircle
 10
350.3302119483
 20
75.2384285714
 30
0.0
 40
54.99999999999991
100
AcDbArc
 50
2.0839423346
 51
357.9160576654
  0
LINE
  5
B0
330
1F
100
AcDbEntity
  8
0
  6
Continuous
 62
     7
370
    25
100
AcDbLine
 10
405.2938362829
 20
73.2384285714
 30
0.0
 11
426.6735082405
 21
73.2384285714
 31
0.0
  0
LINE
  5
B1
330
1F
100
AcDbEntity
  8
0
  6
Continuous
 62
     7
370
    25
100
AcDbLine
 10
426.6735082405
 20
73.2384285714
 30
0.0
 11
426.6735082405
 21
66.2384285714
 31
0.0
  0
LINE
  5
B2
330
1F
100
AcDbEntity
  8
0
  6
Continuous
 62
     7
370
    25
100
AcDbLine
 10
426.6735082405
 20
66.2384285714
 30
0.0
 11
411.6735082405
 21
66.2384285714
 31
0.0
  0
ARC
  5
B3
330
1F
100
AcDbEntity
  8
0
  6
Continuous
 62
     7
370
    25
100
AcDbCircle
 10
350.3302119483
 20
75.2384285714
 30
0.0
 40
61.99999999999994
100
AcDbArc
 50
8.3466192632
 51
351.6533807368
  0
LINE
  5
B4
330
1F
100
AcDbEntity
  8
0
  6
Continuous
 62
     7
370
    25
100
AcDbLine
 10
357.3302119483
 20
152.2384285714
 30
0.0
 11
343.3302119483
 21
152.2384285714
 31
0.0
  0
LINE
  5
B5
330
1F
100
AcDbEntity
  8
0
  6
Continuous
 62
     7
370
    25
100
AcDbLine
 10
334.3302119483
 20
185.2384285714
 30
0.0
 11
366.3302119483
 21
185.2384285714
 31
0.0
  0
LINE
  5
B6
330
1F
100
AcDbEntity
  8
0
  6
Continuous
 62
     7
370
    25
100
AcDbLine
 10
71.1807140607
 20
249.0935372102
 30
0.0
 11
211.1807140607
 21
249.0935372102
 31
0.0
  0
LINE
  5
B7
330
1F
100
AcDbEntity
  8
0
  6
Continuous
 62
     7
370
    25
100
AcDbLine
 10
211.1807140607
 20
372.4368335025
 30
0.0
 11
71.1807140607
 21
372.4368335025
 31
0.0
  0
LINE
  5
B8
330
1F
100
AcDbEntity
  8
0
  6
Continuous
 62
     7
370
    25
100
AcDbLine
 10
211.1807140607
 20
372.4368335025
 30
0.0
 11
211.1807140607
 21
249.0935372102
 31
0.0
  0
LINE
  5
B9
330
1F
100
AcDbEntity
  8
0
  6
Continuous
 62
     7
370
    25
100
AcDbLine
 10
71.1807140607
 20
372.4368335025
 30
0.0
 11
71.1807140607
 21
249.0935372102
 31
0.0
  0
LINE
  5
BA
330
1F
100
AcDbEntity
  8
0
  6
Continuous
 62
     7
370
    25
100
AcDbLine
 10
111.1807140607
 20
372.2817713733
 30
0.0
 11
171.1807140607
 21
372.2817713733
 31
0.0
  0
LINE
  5
BB
330
1F
100
AcDbEntity
  8
0
  6
Continuous
 62
     7
370
    25
100
AcDbLine
 10
111.1807140607
 20
249.9053030471
 30
0.0
 11
111.1807140607
 21
372.2817713733
 31
0.0
  0
LINE
  5
BC
330
1F
100
AcDbEntity
  8
0
  6
Continuous
 62
     7
370
    25
100
AcDbLine
 10
171.1807140607
 20
249.9053030471
 30
0.0
 11
111.1807140607
 21
249.9053030471
 31
0.0
  0
LINE
  5
BD
330
1F
100
AcDbEntity
  8
0
  6
Continuous
 62
     7
370
    25
100
AcDbLine
 10
171.1807140607
 20
372.2817713733
 30
0.0
 11
171.1807140607
 21
249.9053030471
 31
0.0
  0
SPLINE
  5
BE
330
1F
100
AcDbEntity
  8
0
  6
Continuous
 62
     7
370
    25
100
AcDbSpline
210
0.0
220
0.0
230
1.0
 70
    11
 71
     3
 72
   102
 73
    98
 74
     0
 42
0.00000001
 43
0.00000001
 40
0.0
 40
0.0
 40
0.0
 40
0.0
 40
0.0312500000000001
 40
0.0312500000000001
 40
0.0468750000000002
 40
0.0468750000000002
 40
0.0625000000000002
 40
0.0625000000000002
 40
0.0937500000000002
 40
0.0937500000000002
 40
0.1093750000000002
 40
0.1093750000000002
 40
0.1250000000000002
 40
0.1250000000000002
 40
0.1562500000000003
 40
0.1562500000000003
 40
0.1718750000000003
 40
0.1718750000000003
 40
0.1875000000000003
 40
0.1875000000000003
 40
0.2031250000000004
 40
0.2031250000000004
 40
0.2187500000000004
 40
0.2187500000000004
 40
0.2500000000000004
 40
0.2500000000000004
 40
0.2656250000000005
 40
0.2656250000000005
 40
0.2812500000000006
 40
0.2812500000000006
 40
0.3125000000000007
 40
0.3125000000000007
 40
0.3281250000000007
 40
0.3281250000000007
 40
0.3437500000000008
 40
0.3437500000000008
 40
0.3593750000000008
 40
0.3593750000000008
 40
0.3750000000000009
 40
0.3750000000000009
 40
0.4062500000000009
 40
0.4062500000000009
 40
0.4218750000000009
 40
0.4218750000000009
 40
0.4375000000000009
 40
0.4375000000000009
 40
0.4687500000000009
 40
0.4687500000000009
 40
0.4843750000000009
 40
0.4843750000000009
 40
0.5000000000000009
 40
0.5000000000000009
 40
0.5312500000000009
 40
0.5312500000000009
 40
0.5625000000000009
 40
0.5625000000000009
 40
0.5781250000000008
 40
0.5781250000000008
 40
0.5937500000000008
 40
0.5937500000000008
 40
0.6250000000000007
 40
0.6250000000000007
 40
0.6406250000000007
 40
0.6406250000000007
 40
0.6562500000000008
 40
0.6562500000000008
 40
0.6875000000000008
 40
0.6875000000000008
 40
0.7031250000000007
 40
0.7031250000000007
 40
0.7187500000000007
 40
0.7187500000000007
 40
0.7343750000000006
 40
0.7343750000000006
 40
0.7500000000000006
 40
0.7500000000000006
 40
0.7812500000000006
 40
0.7812500000000006
 40
0.8125000000000006
 40
0.8125000000000006
 40
0.8437500000000006
 40
0.8437500000000006
 40
0.8593750000000004
 40
0.8593750000000004
 40
0.8750000000000004
 40
0.8750000000000004
 40
0.8906250000000003
 40
0.8906250000000003
 40
0.9062500000000003
 40
0.9062500000000003
 40
0.9375000000000002
 40
0.9375000000000002
 40
0.9531250000000001
 40
0.9531250000000001
 40
0.9687500000000001
 40
0.9687500000000001
 40
1.0
 40
1.0
 40
1.0
 40
1.0
 10
141.1807140607425
 20
298.0935372102217
 30
0.0
 10
142.0428398640997
 20
298.0935372102217
 30
0.0
 10
142.8899251104951
 20
298.1784430286995
 30
0.0
 10
144.1390665306607
 20
298.4275032731016
 30
0.0
 10
144.5518401721854
 20
298.5309604873731
 30
0.0
 10
145.3700480225709
 20
298.7796301887691
 30
0.0
 10
145.7758741702236
 20
298.9253089295271
 30
0.0
 10
146.9553929729166
 20
299.4154300368508
 30
0.0
 10
147.700814597188
 20
299.8148740465127
 30
0.0
 10
148.7588686273716
 20
300.5222760836711
 30
0.0
 10
149.1031654400179
 20
300.7777029037237
 30
0.0
 10
149.7618755433228
 20
301.3188075000975
 30
0.0
 10
150.0756011235659
 20
301.6035776394148
 30
0.0
 10
150.9713572172978
 20
302.4995450852122
 30
0.0
 10
151.508424773513
 20
303.1519769724975
 30
0.0
 10
152.2213396204816
 20
304.2169767223284
 30
0.0
 10
152.4415851738272
 20
304.5841012647969
 30
0.0
 10
152.8420243995117
 20
305.3321297662015
 30
0.0
 10
153.0232326682316
 20
305.7145225985863
 30
0.0
 10
153.3479591205119
 20
306.4960169202796
 30
0.0
 10
153.4914782888783
 20
306.8951178193701
 30
0.0
 10
153.7400311227407
 20
307.7104622482343
 30
0.0
 10
153.8454693319248
 20
308.129201049462
 30
0.0
 10
154.0968739409226
 20
309.3888161886668
 30
0.0
 10
154.1801887867849
 20
310.2343382195198
 30
0.0
 10
154.1809730195318
 20
311.5111596702001
 30
0.0
 10
154.1603887662984
 20
311.9381995253954
 30
0.0
 10
154.0760466443208
 20
312.7952444258217
 30
0.0
 10
154.0128293008776
 20
313.2190950607294
 30
0.0
 10
153.7630399084032
 20
314.4713748485843
 30
0.0
 10
153.5166526418092
 20
315.2832862140201
 30
0.0
 10
153.0260412935086
 20
316.4666710347563
 30
0.0
 10
152.8416258242056
 20
316.8558329060584
 30
0.0
 10
152.4400220259676
 20
317.6057487382473
 30
0.0
 10
152.2220255075514
 20
317.9687095527282
 30
0.0
 10
151.7522459636302
 20
318.6712193380775
 30
0.0
 10
151.5004624259452
 20
319.010767650999
 30
0.0
 10
150.9626814284384
 20
319.6663348044034
 30
0.0
 10
150.6751068976818
 20
319.9838773689698
 30
0.0
 10
149.771072436755
 20
320.8880416332732
 30
0.0
 10
149.1181229764211
 20
321.4237108816451
 30
0.0
 10
148.0643694887617
 20
322.1295702403651
 30
0.0
 10
147.7006387067171
 20
322.348459597726
 30
0.0
 10
146.9472523597126
 20
322.7524278686182
 30
0.0
 10
146.5595390249847
 20
322.93620351636
 30
0.0
 10
145.3824606895471
 20
323.4250958386082
 30
0.0
 10
144.5721550438987
 20
323.6723224496095
 30
0.0
 10
143.3175235537011
 20
323.9238128386335
 30
0.0
 10
142.8901813016997
 20
323.9877790666075
 30
0.0
 10
142.0370416510129
 20
324.0723836287991
 30
0.0
 10
141.6112452089048
 20
324.0933565756886
 30
0.0
 10
140.3361196665083
 20
324.0938950024696
 30
0.0
 10
139.489033479859
 20
324.0116912260912
 30
0.0
 10
137.8010589147073
 20
323.676001891648
 30
0.0
 10
136.986633683887
 20
323.4275506058861
 30
0.0
 10
135.8122854159864
 20
322.940879656912
 30
0.0
 10
135.428461468836
 20
322.7594470015098
 30
0.0
 10
134.676274258379
 20
322.3573786507337
 30
0.0
 10
134.3075910162625
 20
322.13620841459
 30
0.0
 10
133.2483533686121
 20
321.4279111486534
 30
0.0
 10
132.5958099638904
 20
320.8924021899388
 30
0.0
 10
131.696101985078
 20
319.9941954490756
 30
0.0
 10
131.4081399316166
 20
319.677162262295
 30
0.0
 10
130.866653862672
 20
319.0183076406141
 30
0.0
 10
130.6139468314409
 20
318.6778694278493
 30
0.0
 10
129.9084050628616
 20
317.6242117020824
 30
0.0
 10
129.5076204508209
 20
316.8789704771149
 30
0.0
 10
129.0143618138305
 20
315.6938590611335
 30
0.0
 10
128.8689685059745
 20
315.2890210892211
 30
0.0
 10
128.620901389869
 20
314.4747011010825
 30
0.0
 10
128.5173285468716
 20
314.0631490537555
 30
0.0
 10
128.3506788235843
 20
313.2313218082225
 30
0.0
 10
128.287601293467
 20
312.8110467909249
 30
0.0
 10
128.2027064965885
 20
311.9615900048441
 30
0.0
 10
128.180961425802
 20
311.5298590095935
 30
0.0
 10
128.1802257063251
 20
310.243193940917
 30
0.0
 10
128.2638137141
 20
309.397240516827
 30
0.0
 10
128.5950408921713
 20
307.7283376721522
 30
0.0
 10
128.8468885881431
 20
306.8985315793747
 30
0.0
 10
129.4975282568924
 20
305.3294681176367
 30
0.0
 10
129.8963135956393
 20
304.5829058468866
 30
0.0
 10
130.6060741443081
 20
303.5199981240831
 30
0.0
 10
130.8619607523358
 20
303.1749840268045
 30
0.0
 10
131.4004629139418
 20
302.5187578040874
 30
0.0
 10
131.6842892156048
 20
302.2055681063081
 30
0.0
 10
132.280701237723
 20
301.6083987620196
 30
0.0
 10
132.593287085702
 20
301.3244196598168
 30
0.0
 10
133.2477034798454
 20
300.7859233792394
 30
0.0
 10
133.5912569467459
 20
300.5302824663171
 30
0.0
 10
134.6552052590334
 20
299.8176081949221
 30
0.0
 10
135.4010881046951
 20
299.4181980572552
 30
0.0
 10
136.574127961369
 20
298.9297068249683
 30
0.0
 10
136.9742418212621
 20
298.785451395511
 30
0.0
 10
137.7933669141594
 20
298.5353022851879
 30
0.0
 10
138.2114788946044
 20
298.4299569782455
 30
0.0
 10
139.4685972760872
 20
298.1784629491184
 30
0.0
 10
140.3185882573852
 20
298.0935372102217
 30
0.0
 10
141.1807140607425
 20
298.0935372102217
 30
0.0
  0
LINE
  5
BF
330
1F
100
AcDbEntity
  8
0
  6
Continuous
 62
     7
370
    25
100
AcDbLine
 10
171.1807140607
 20
365.1768063422
 30
0.0
 11
111.1807140607
 21
365.1768063422
 31
0.0
  0
LINE
  5
C0
330
1F
100
AcDbEntity
  8
0
  6
Continuous
 62
     7
370
    25
100
AcDbLine
 10
111.1807140607
 20
257.0102680783
 30
0.0
 11
171.1807140607
 21
257.0102680783
 31
0.0
  0
LINE
  5
C1
330
1F
100
AcDbEntity
  8
0
  6
Continuous
 62
     7
370
    25
100
AcDbLine
 10
211.1807140607
 20
387.4368335025
 30
0.0
 11
71.1807140607
 21
387.4368335025
 31
0.0
  0
LINE
  5
C2
330
1F
100
AcDbEntity
  8
0
  6
Continuous
 62
     7
370
    25
100
AcDbLine
 10
71.1807140607
 20
387.4368335025
 30
0.0
 11
71.1807140607
 21
372.4368335025
 31
0.0
  0
LINE
  5
C3
330
1F
100
AcDbEntity
  8
0
  6
Continuous
 62
     7
370
    25
100
AcDbLine
 10
211.1807140607
 20
387.4368335025
 30
0.0
 11
211.1807140607
 21
372.4368335025
 31
0.0
  0
INSERT
  5
CF
330
1F
100
AcDbEntity
  8
FORMAT
100
AcDbBlockReference
  2
SW_CENTERMARKSYMBOL_0
 10
141.1807140607
 20
311.0935372102
 30
0.0
  0
LINE
  5
D0
330
1F
100
AcDbEntity
  8
0
  6
Continuous
 62
     7
370
    25
100
AcDbLine
 10
-38.2180030607
 20
136.8420503105
 30
0.0
 11
-38.2180030607
 21
152.2384285714
 31
0.0
  0
LINE
  5
D1
330
1F
100
AcDbEntity
  8
0
  6
Continuous
 62
     7
370
    25
100
AcDbLine
 10
-52.2180030607
 20
152.2384285714
 30
0.0
 11
-52.2180030607
 21
136.844591067
 31
0.0
  0
LINE
  5
D2
330
1F
100
AcDbEntity
  8
0
  6
Continuous
 62
     7
370
    25
100
AcDbLine
 10
-61.2180030607
 20
185.2384285714
 30
0.0
 11
-61.2180030607
 21
135.1383450989
 31
0.0
  0
LINE
  5
D3
330
1F
100
AcDbEntity
  8
0
  6
Continuous
 62
     7
370
    25
100
AcDbLine
 10
-29.2180030607
 20
135.1474837141
 30
0.0
 11
-29.2180030607
 21
185.2384285714
 31
0.0
  0
LINE
  5
D4
330
1F
100
AcDbEntity
  8
0
  6
Continuous
 62
     7
370
    25
100
AcDbLine
 10
-121.561299353
 20
66.2384285714
 30
0.0
 11
-106.561299353
 21
66.2384285714
 31
0.0
  0
LINE
  5
D5
330
1F
100
AcDbEntity
  8
0
  6
Continuous
 62
     7
370
    25
100
AcDbLine
 10
-121.561299353
 20
73.2384285714
 30
0.0
 11
-121.561299353
 21
66.2384285714
 31
0.0
  0
LINE
  5
D6
330
1F
100
AcDbEntity
  8
0
  6
Continuous
 62
     7
370
    25
100
AcDbLine
 10
-100.1816273953
 20
73.2384285714
 30
0.0
 11
-121.561299353
 21
73.2384285714
 31
0.0
  0
ARC
  5
D7
330
1F
100
AcDbEntity
  8
0
  6
Continuous
 62
     7
370
    25
100
AcDbCircle
 10
-45.2180030607
 20
75.2384285714
 30
0.0
 40
55.0
100
AcDbArc
 50
182.0839423346
 51
177.9160576654
  0
LINE
  5
D8
330
1F
100
AcDbEntity
  8
0
  6
Continuous
 62
     7
370
    25
100
AcDbLine
 10
-121.561299353
 20
77.2384285714
 30
0.0
 11
-100.1816273953
 21
77.2384285714
 31
0.0
  0
LINE
  5
D9
330
1F
100
AcDbEntity
  8
0
  6
Continuous
 62
     7
370
    25
100
AcDbLine
 10
-121.561299353
 20
84.2384285714
 30
0.0
 11
-121.561299353
 21
77.2384285714
 31
0.0
  0
LINE
  5
DA
330
1F
100
AcDbEntity
  8
0
  6
Continuous
 62
     7
370
    25
100
AcDbLine
 10
-106.561299353
 20
84.2384285714
 30
0.0
 11
-121.561299353
 21
84.2384285714
 31
0.0
  0
ARC
  5
DB
330
1F
100
AcDbEntity
  8
0
  6
Continuous
 62
     7
370
    25
100
AcDbCircle
 10
-45.2180030607
 20
75.2384285714
 30
0.0
 40
62.00000000000001
100
AcDbArc
 50
188.3466192632
 51
171.6533807368
  0
LINE
  5
DC
330
1F
100
AcDbEntity
  8
0
  6
Continuous
 62
     7
370
    25
100
AcDbLine
 10
-52.2180030607
 20
152.2384285714
 30
0.0
 11
-38.2180030607
 21
152.2384285714
 31
0.0
  0
LINE
  5
DD
330
1F
100
AcDbEntity
  8
0
  6
Continuous
 62
     7
370
    25
100
AcDbLine
 10
-61.2180030607
 20
185.2384285714
 30
0.0
 11
-29.2180030607
 21
185.2384285714
 31
0.0
  0
LINE
  5
DE
330
1F
100
AcDbEntity
  8
0
  6
Continuous
 62
     7
370
    25
100
AcDbLine
 10
211.1807140607
 20
-58.7298797879
 30
0.0
 11
71.1807140607
 21
-58.7298797879
 31
0.0
  0
CIRCLE
  5
DF
330
1F
100
AcDbEntity
  8
0
  6
Continuous
 62
     7
370
    25
100
AcDbCircle
 10
141.1807140607
 20
-120.7298797879
 30
0.0
 40
12.99999999999999
  0
CIRCLE
  5
E0
330
1F
100
AcDbEntity
  8
0
  6
Continuous
 62
     7
370
    25
100
AcDbCircle
 10
141.1807140607
 20
-120.7298797879
 30
0.0
 40
16.00000000000001
  0
CIRCLE
  5
E1
330
1F
100
AcDbEntity
  8
0
  6
Continuous
 62
     7
370
    25
100
AcDbCircle
 10
81.1807140607
 20
-120.7298797879
 30
0.0
 40
4.599999999999952
  0
CIRCLE
  5
E2
330
1F
100
AcDbEntity
  8
0
  6
Continuous
 62
     7
370
    25
100
AcDbCircle
 10
81.1807140607
 20
-120.7298797879
 30
0.0
 40
6.999999999999943
  0
CIRCLE
  5
E3
330
1F
100
AcDbEntity
  8
0
  6
Continuous
 62
     7
370
    25
100
AcDbCircle
 10
201.1807140607
 20
-120.7298797879
 30
0.0
 40
4.599999999999966
  0
CIRCLE
  5
E4
330
1F
100
AcDbEntity
  8
0
  6
Continuous
 62
     7
370
    25
100
AcDbCircle
 10
201.1807140607
 20
-120.7298797879
 30
0.0
 40
6.999999999999943
  0
CIRCLE
  5
E5
330
1F
100
AcDbEntity
  8
0
  6
Continuous
 62
     7
370
    25
100
AcDbCircle
 10
81.1807140607
 20
-120.7298797879
 30
0.0
 40
1.499999999999972
  0
CIRCLE
  5
E6
330
1F
100
AcDbEntity
  8
0
  6
Continuous
 62
     7
370
    25
100
AcDbCircle
 10
81.1807140607
 20
-120.7298797879
 30
0.0
 40
1.999999999999972
  0
CIRCLE
  5
E7
330
1F
100
AcDbEntity
  8
0
  6
Continuous
 62
     7
370
    25
100
AcDbCircle
 10
201.1807140607
 20
-120.7298797879
 30
0.0
 40
1.499999999999972
  0
CIRCLE
  5
E8
330
1F
100
AcDbEntity
  8
0
  6
Continuous
 62
     7
370
    25
100
AcDbCircle
 10
201.1807140607
 20
-120.7298797879
 30
0.0
 40
1.999999999999972
  0
LINE
  5
E9
330
1F
100
AcDbEntity
  8
0
  6
Continuous
 62
     7
370
    25
100
AcDbLine
 10
211.1807140607
 20
-58.7298797879
 30
0.0
 11
211.1807140607
 21
-182.0731760802
 31
0.0
  0
LINE
  5
EA
330
1F
100
AcDbEntity
  8
0
  6
Continuous
 62
     7
370
    25
100
AcDbLine
 10
211.1807140607
 20
-182.0731760802
 30
0.0
 11
71.1807140607
 21
-182.0731760802
 31
0.0
  0
LINE
  5
EB
330
1F
100
AcDbEntity
  8
0
  6
Continuous
 62
     7
370
    25
100
AcDbLine
 10
71.1807140607
 20
-58.7298797879
 30
0.0
 11
71.1807140607
 21
-182.0731760802
 31
0.0
  0
LINE
  5
EC
330
1F
100
AcDbEntity
  8
0
  6
Continuous
 62
     7
370
    25
100
AcDbLine
 10
211.1807140607
 20
-197.0731760802
 30
0.0
 11
71.1807140607
 21
-197.0731760802
 31
0.0
  0
LINE
  5
ED
330
1F
100
AcDbEntity
  8
0
  6
Continuous
 62
     7
370
    25
100
AcDbLine
 10
71.1807140607
 20
-182.0731760802
 30
0.0
 11
71.1807140607
 21
-197.0731760802
 31
0.0
  0
LINE
  5
EE
330
1F
100
AcDbEntity
  8
0
  6
Continuous
 62
     7
370
    25
100
AcDbLine
 10
211.1807140607
 20
-182.0731760802
 30
0.0
 11
211.1807140607
 21
-197.0731760802
 31
0.0
  0
INSERT
  5
FA
330
1F
100
AcDbEntity
  8
FORMAT
100
AcDbBlockReference
  2
SW_CENTERMARKSYMBOL_1
 10
141.1807140607
 20
-120.7298797879
 30
0.0
  0
INSERT
  5
106
330
1F
100
AcDbEntity
  8
FORMAT
100
AcDbBlockReference
  2
SW_CENTERMARKSYMBOL_2
 10
81.1807140607
 20
-120.7298797879
 30
0.0
  0
INSERT
  5
112
330
1F
100
AcDbEntity
  8
FORMAT
100
AcDbBlockReference
  2
SW_CENTERMARKSYMBOL_3
 10
201.1807140607
 20
-120.7298797879
 30
0.0
  0
LINE
  5
113
330
1F
100
AcDbEntity
  8
0
  6
Continuous
 62
     7
370
    25
100
AcDbLine
 10
429.2841997039
 20
-156.5202525689
 30
0.0
 11
457.5684709513
 21
-140.1920903324
 31
0.0
  0
LINE
  5
114
330
1F
100
AcDbEntity
  8
0
  6
Continuous
 62
     7
370
    25
100
AcDbLine
 10
358.5735215852
 20
-197.34065816
 30
0.0
 11
386.8577928327
 21
-181.0124959235
 31
0.0
  0
LINE
  5
115
330
1F
100
AcDbEntity
  8
0
  6
Continuous
 62
     7
370
    25
100
AcDbLine
 10
395.5735095279
 20
-32.8020313972
 30
0.0
 11
296.5785601618
 21
-89.9505992248
 31
0.0
  0
LINE
  5
116
330
1F
100
AcDbEntity
  8
0
  6
Continuous
 62
     7
370
    25
100
AcDbLine
 10
426.4999224277
 20
-35.8305704703
 30
0.0
 11
426.4999224277
 21
-27.7054589087
 31
0.0
  0
LINE
  5
117
330
1F
100
AcDbEntity
  8
0
  6
Continuous
 62
     7
370
    25
100
AcDbLine
 10
412.4999224277
 20
-27.7054589087
 30
0.0
 11
412.4999224277
 21
-30.4269266039
 31
0.0
  0
LINE
  5
118
330
1F
100
AcDbEntity
  8
0
  6
Continuous
 62
     7
370
    25
100
AcDbLine
 10
361.0735155566
 20
-25.2518554712
 30
0.0
 11
361.0735155566
 21
-52.7184539839
 31
0.0
  0
LINE
  5
119
330
1F
100
AcDbEntity
  8
0
  6
Continuous
 62
     7
370
    25
100
AcDbLine
 10
393.0735155566
 20
-34.2452471971
 30
0.0
 11
393.0735155566
 21
-25.2518554712
 31
0.0
  0
LINE
  5
11A
330
1F
100
AcDbEntity
  8
0
  6
Continuous
 62
     7
370
    25
100
AcDbLine
 10
372.5881277332
 20
-62.6822849836
 30
0.0
 11
383.194729451
 21
-68.8053458223
 31
0.0
  0
LINE
  5
11B
330
1F
100
AcDbEntity
  8
0
  6
Continuous
 62
     7
370
    25
100
AcDbLine
 10
372.5881277332
 20
-56.9664993004
 30
0.0
 11
372.5881277332
 21
-62.6822849836
 31
0.0
  0
LINE
  5
11C
330
1F
100
AcDbEntity
  8
0
  6
Continuous
 62
     7
370
    25
100
AcDbLine
 10
387.705838754
 20
-65.6937681076
 30
0.0
 11
372.5881277332
 21
-56.9664993004
 31
0.0
  0
LWPOLYLINE
  5
11D
330
1F
100
AcDbEntity
  8
0
  6
Continuous
 62
     7
370
    25
100
AcDbPolyline
 90
      110
 70
   128
 43
0.0
 10
387.705838754
 20
-62.42760486
 10
387.8494395452
 20
-59.9574280046
 10
388.1187090803
 20
-57.5733841232
 10
388.5127734591
 20
-55.2832105042
 10
389.0303537666
 20
-53.0943397848
 10
389.6697702232
 20
-51.0138758291
 10
390.4289476368
 20
-49.0485706728
 10
391.3054221371
 20
-47.2048026099
 10
392.2963491726
 20
-45.4885554919
 10
393.398512742
 20
-43.9053993081
 10
394.6083358318
 20
-42.4604721081
 10
395.9218920251
 20
-41.1584633267
 10
397.3349182449
 20
-40.0035985644
 10
398.8428285893
 20
-38.9996258738
 10
400.440729215
 20
-38.1498035951
 10
402.1234342202
 20
-37.4568897815
 10
403.8854824748
 20
-36.9231332482
 10
405.7211553444
 20
-36.5502662737
 10
407.6244952499
 20
-36.3394989781
 10
409.5893250022
 20
-36.2915153954
 10
411.6092678506
 20
-36.4064712539
 10
413.6777681772
 20
-36.6839934704
 10
415.7881127738
 20
-37.1231813612
 10
417.9334526285
 20
-37.7226095653
 10
420.1068251546
 20
-38.4803326701
 10
422.3011767864
 20
-39.3938915254
 10
424.5093858718
 20
-40.4603212244
 10
426.7242857851
 20
-41.6761607257
 10
428.9386881858
 20
-43.0374640867
 10
431.1454063481
 20
-44.5398132693
 10
433.3372784849
 20
-46.1783324788
 10
435.5071909914
 20
-47.9477039878
 10
437.6481015311
 20
-49.8421853947
 10
439.7530618924
 20
-51.8556282602
 10
441.8152405376
 20
-53.9814980622
 10
443.8279447751
 20
-56.2128954027
 10
445.7846424798
 20
-58.5425783997
 10
447.678983293
 20
-60.9629861903
 10
449.5048192316
 20
-63.466263469
 10
451.2562246417
 20
-66.0442859821
 10
452.9275154299
 20
-68.6886868937
 10
454.5132675103
 20
-71.3908839407
 10
456.0083344083
 20
-74.1421072856
 10
457.4078639636
 20
-76.9334279785
 10
458.7073140769
 20
-79.7557869359
 10
459.9024674518
 20
-82.6000243411
 10
460.9894452811
 20
-85.4569093721
 10
461.9647198359
 20
-88.3171701598
 10
462.8251259141
 20
-91.171523879
 10
463.5678711135
 20
-94.0107068759
 10
464.1905448937
 20
-96.8255047323
 10
464.6911263999
 20
-99.6067821706
 10
465.0679910214
 20
-102.3455127022
 10
465.319915664
 20
-105.0328079219
 10
465.4460827195
 20
-107.6599463554
 10
465.4460827195
 20
-110.2184017639
 10
465.319915664
 20
-112.6998708157
 10
465.0679910214
 20
-115.0963000344
 10
464.6911263999
 20
-117.3999119357
 10
464.1905448937
 20
-119.6032302692
 10
463.5678711135
 20
-121.6991042816
 10
462.8251259141
 20
-123.6807319249
 10
461.9647198359
 20
-125.5416819314
 10
460.9894452811
 20
-127.2759146863
 10
459.9024674518
 20
-128.877801829
 10
458.7073140769
 20
-130.3421445195
 10
457.4078639636
 20
-131.664190311
 10
456.0083344083
 20
-132.8396485741
 10
454.5132675103
 20
-133.8647044209
 10
452.9275154299
 20
-134.7360310872
 10
451.2562246417
 20
-135.4508007281
 10
449.5048192316
 20
-136.0066935968
 10
447.678983293
 20
-136.4019055723
 10
445.7846424798
 20
-136.635154015
 10
443.8279447751
 20
-136.7056819296
 10
441.8152405376
 20
-136.6132604213
 10
439.7530618924
 20
-136.3581894393
 10
437.6481015311
 20
-135.9412968029
 10
435.5071909914
 20
-135.3639355152
 10
433.3372784849
 20
-134.6279793717
 10
431.1454063481
 20
-133.735816879
 10
428.9386881858
 20
-132.6903435034
 10
426.7242857851
 20
-131.4949522733
 10
424.5093858718
 20
-130.1535227678
 10
422.3011767864
 20
-128.6704085252
 10
420.1068251546
 20
-127.0504229145
 10
417.9334526285
 20
-125.2988235132
 10
415.7881127738
 20
-123.4212950444
 10
413.6777681772
 20
-121.4239309275
 10
411.6092678506
 20
-119.313213502
 10
409.5893250022
 20
-117.0959929896
 10
407.6244952499
 20
-114.7794652621
 10
405.7211553444
 20
-112.3711484878
 10
403.8854824748
 20
-109.8788587312
 10
402.1234342202
 20
-107.310684587
 10
400.440729215
 20
-104.6749609283
 10
398.8428285893
 20
-101.9802418568
 10
397.3349182449
 20
-99.2352729408
 10
395.9218920251
 20
-96.4489628315
 10
394.6083358318
 20
-93.630354351
 10
393.398512742
 20
-90.788595144
 10
392.2963491726
 20
-87.9329079895
 10
391.3054221371
 20
-85.0725608692
 10
390.4289476368
 20
-82.2168368882
 10
389.6697702232
 20
-79.3750041477
 10
389.0303537666
 20
-76.5562856653
 10
388.5127734591
 20
-73.7698294429
 10
388.1187090803
 20
-71.0246787765
 10
387.8494395452
 20
-68.3297429075
 10
387.705838754
 20
-65.6937681076
  0
LINE
  5
11E
330
1F
100
AcDbEntity
  8
0
  6
Continuous
 62
     7
370
    25
100
AcDbLine
 10
372.5881277332
 20
-53.7003360529
 30
0.0
 11
387.705838754
 21
-62.42760486
 31
0.0
  0
LINE
  5
11F
330
1F
100
AcDbEntity
  8
0
  6
Continuous
 62
     7
370
    25
100
AcDbLine
 10
372.5881277332
 20
-47.9845503697
 30
0.0
 11
372.5881277332
 21
-53.7003360529
 31
0.0
  0
LINE
  5
120
330
1F
100
AcDbEntity
  8
0
  6
Continuous
 62
     7
370
    25
100
AcDbLine
 10
383.194729451
 20
-54.1076112084
 30
0.0
 11
372.5881277332
 21
-47.9845503697
 31
0.0
  0
LWPOLYLINE
  5
121
330
1F
100
AcDbEntity
  8
0
  6
Continuous
 62
     7
370
    25
100
AcDbPolyline
 90
      112
 70
   128
 43
0.0
 10
383.194729451
 20
-68.8053458223
 10
383.601273846
 20
-71.7318664223
 10
384.1329969646
 20
-74.7014007621
 10
384.7883497992
 20
-77.7052980392
 10
385.5654231858
 20
-80.734807346
 10
386.4619533661
 20
-83.781103162
 10
387.475328582
 20
-86.8353110646
 10
388.6025966843
 20
-89.8885335819
 10
389.8404737327
 20
-92.9318761126
 10
391.1853535626
 20
-95.9564728374
 10
392.6333182905
 20
-98.9535125472
 10
394.1801497278
 20
-101.9142643117
 10
395.8213416685
 20
-104.8301029137
 10
397.5521130173
 20
-107.6925339768
 10
399.3674217174
 20
-110.4932187102
 10
401.2619794393
 20
-113.223998202
 10
403.2302669861
 20
-115.8769171867
 10
405.2665503725
 20
-118.4442472213
 10
407.3648975289
 20
-120.918509199
 10
409.5191955821
 20
-123.2924951374
 10
411.723168664
 20
-125.5592891768
 10
413.9703961936
 20
-127.7122877274
 10
416.254331582
 20
-129.7452187065
 10
418.5683213033
 20
-131.6521598106
 10
420.9056242779
 20
-133.4275557678
 10
423.2594315104
 20
-135.0662345218
 10
425.6228859254
 20
-136.5634222985
 10
427.9891023434
 20
-137.9147575132
 10
430.3511875389
 20
-139.1163034768
 10
432.7022603211
 20
-140.1645598639
 10
435.0354715807
 20
-141.0564729099
 10
437.344024242
 20
-141.7894443074
 10
439.6211930648
 20
-142.3613387751
 10
441.8603442353
 20
-142.7704902789
 10
444.0549546925
 20
-143.0157068848
 10
446.1986311307
 20
-143.0962742316
 10
448.2851286242
 20
-143.0119576116
 10
450.3083688203
 20
-142.7630026547
 10
452.2624576465
 20
-142.3501346129
 10
454.141702481
 20
-141.7745562468
 10
455.9406287364
 20
-141.0379443228
 10
457.6539958079
 20
-140.1424447273
 10
459.2768123408
 20
-139.0906662163
 10
460.8043507707
 20
-137.8856728148
 10
462.2321610959
 20
-136.5309748913
 10
463.556083841
 20
-135.0305189312
 10
464.7722621744
 20
-133.3886760398
 10
465.8771531441
 20
-131.6102292091
 10
466.8675379983
 20
-129.700359383
 10
467.7405315631
 20
-127.6646303655
 10
468.4935906468
 20
-125.5089726112
 10
469.1245214492
 20
-123.2396659495
 10
469.6314859524
 20
-120.86332129
 10
470.0130072749
 20
-118.3868613638
 10
470.2679739748
 20
-115.8175005563
 10
470.3956432869
 20
-113.1627238902
 10
470.3956432869
 20
-110.4302652206
 10
470.2679739748
 20
-107.6280847044
 10
470.0130072749
 20
-104.7643456112
 10
469.6314859524
 20
-101.8473905422
 10
469.1245214492
 20
-98.8857171265
 10
468.4935906468
 20
-95.8879532659
 10
467.7405315631
 20
-92.8628320006
 10
466.8675379983
 20
-89.8191660677
 10
465.8771531441
 20
-86.7658222285
 10
464.7722621744
 20
-83.7116954378
 10
463.556083841
 20
-80.6656829312
 10
462.2321610959
 20
-77.6366583061
 10
460.8043507707
 20
-74.6334456708
 10
459.2768123408
 20
-71.6647939387
 10
457.6539958079
 20
-68.7393513408
 10
455.9406287364
 20
-65.865640232
 10
454.141702481
 20
-63.0520322636
 10
452.2624576465
 20
-60.3067239957
 10
450.3083688203
 20
-57.6377130184
 10
448.2851286242
 20
-55.0527746539
 10
446.1986311307
 20
-52.5594393053
 10
444.0549546925
 20
-50.1649705192
 10
441.8603442353
 20
-47.8763438255
 10
439.6211930648
 20
-45.7002264168
 10
437.344024242
 20
-43.6429577252
 10
435.0354715807
 20
-41.7105309544
 10
432.7022603211
 20
-39.9085756207
 10
430.3511875389
 20
-38.242341153
 10
427.9891023434
 20
-36.7166816002
 10
425.6228859254
 20
-35.3360414904
 10
423.2594315104
 20
-34.1044428834
 10
420.9056242779
 20
-33.0254736534
 10
418.5683213033
 20
-32.1022770373
 10
416.254331582
 20
-31.3375424774
 10
413.9703961936
 20
-30.7334977867
 10
411.723168664
 20
-30.2919026591
 10
409.5191955821
 20
-30.0140435427
 10
407.3648975289
 20
-29.9007298924
 10
405.2665503725
 20
-29.952291812
 10
403.2302669861
 20
-30.1685790919
 10
401.2619794393
 20
-30.5489616475
 10
399.3674217174
 20
-31.0923313539
 10
397.5521130173
 20
-31.7971052749
 10
395.8213416685
 20
-32.6612302737
 10
394.1801497278
 20
-33.6821889947
 10
392.6333182905
 20
-34.8570071964
 10
391.1853535626
 20
-36.1822624163
 10
389.8404737327
 20
-37.654093941
 10
388.6025966843
 20
-39.2682140534
 10
387.475328582
 20
-41.0199205234
 10
386.4619533661
 20
-42.9041103063
 10
385.5654231858
 20
-44.9152944091
 10
384.7883497992
 20
-47.0476138809
 10
384.1329969646
 20
-49.2948568811
 10
383.601273846
 20
-51.6504767756
 10
383.194729451
 20
-54.1076112084
  0
LINE
  5
122
330
1F
100
AcDbEntity
  8
0
  6
Continuous
 62
     7
370
    25
100
AcDbLine
 10
383.194729451
 20
-68.8053458223
 30
0.0
 11
284.1997800849
 21
-125.9539136499
 31
0.0
  0
LWPOLYLINE
  5
123
330
1F
100
AcDbEntity
  8
0
  6
Continuous
 62
     7
370
    25
100
AcDbPolyline
 90
       42
 70
   128
 43
0.0
 10
284.1997800849
 20
-125.9539136499
 10
284.6063244799
 20
-128.8804342499
 10
285.1380475985
 20
-131.8499685897
 10
285.7934004331
 20
-134.8538658668
 10
286.5704738197
 20
-137.8833751736
 10
287.467004
 20
-140.9296709896
 10
288.4803792159
 20
-143.9838788922
 10
289.6076473182
 20
-147.0371014095
 10
290.8455243666
 20
-150.0804439402
 10
292.1904041965
 20
-153.105040665
 10
293.6383689244
 20
-156.1020803748
 10
295.1852003617
 20
-159.0628321392
 10
296.8263923024
 20
-161.9786707413
 10
298.5571636512
 20
-164.8411018044
 10
300.3724723513
 20
-167.6417865378
 10
302.2670300731
 20
-170.3725660296
 10
304.2353176199
 20
-173.0254850143
 10
306.2716010064
 20
-175.5928150489
 10
308.3699481627
 20
-178.0670770266
 10
310.524246216
 20
-180.441062965
 10
312.7282192978
 20
-182.7078570044
 10
314.9754468275
 20
-184.860855555
 10
317.2593822158
 20
-186.8937865341
 10
319.5733719372
 20
-188.8007276382
 10
321.9106749118
 20
-190.5761235954
 10
324.2644821443
 20
-192.2148023494
 10
326.6279365593
 20
-193.7119901261
 10
328.9941529773
 20
-195.0633253408
 10
331.3562381728
 20
-196.2648713044
 10
333.707310955
 20
-197.3131276915
 10
336.0405222145
 20
-198.2050407375
 10
338.3490748759
 20
-198.938012135
 10
340.6262436987
 20
-199.5099066027
 10
342.8653948692
 20
-199.9190581065
 10
345.0600053264
 20
-200.1642747124
 10
347.2036817646
 20
-200.2448420592
 10
349.2901792581
 20
-200.1605254392
 10
351.3134194542
 20
-199.9115704823
 10
353.2675082804
 20
-199.4987024405
 10
355.1467531149
 20
-198.9231240744
 10
356.9456793702
 20
-198.1865121504
 10
358.5735215852
 20
-197.34065816
  0
ARC
  5
124
330
1F
100
AcDbEntity
  8
0
  6
Continuous
 62
     7
370
    25
100
AcDbCircle
 10
307.5627031593
 20
-108.7539803011
 30
0.0
 40
21.77655935383025
100
AcDbArc
 50
120.29167269
 51
142.4951932147
  0
LINE
  5
125
330
1F
100
AcDbEntity
  8
0
  6
Continuous
 62
     7
370
    25
100
AcDbLine
 10
312.5936968154
 20
-110.5055892154
 30
0.0
 11
355.0201036866
 21
-86.0133458607
 31
0.0
  0
LWPOLYLINE
  5
126
330
1F
100
AcDbEntity
  8
0
  6
Continuous
 62
     7
370
    25
100
AcDbPolyline
 90
       53
 70
   128
 43
0.0
 10
399.1269274265
 20
-160.4601599342
 10
398.6804731219
 20
-162.896325122
 10
398.1083310466
 20
-165.2280575536
 10
397.412180579
 20
-167.4485130173
 10
396.5940650933
 20
-169.5511739266
 10
395.6563859607
 20
-171.5298684515
 10
394.6018955016
 20
-173.3787886337
 10
393.4336889066
 20
-175.0925074348
 10
392.1551951511
 20
-176.6659946661
 10
390.7701669308
 20
-178.0946317531
 10
389.2826696462
 20
-179.3742252923
 10
387.69706947
 20
-180.50101936
 10
386.0180205313
 20
-181.4717065367
 10
384.2504512541
 20
-182.2834376153
 10
382.3995498919
 20
-182.9338299642
 10
380.4707492982
 20
-183.4209745208
 10
378.4697109802
 20
-183.7434413954
 10
376.4023084806
 20
-183.9002840677
 10
374.2746101375
 20
-183.8910421658
 10
372.092861272
 20
-183.7157428169
 10
369.8634658571
 20
-183.374900568
 10
367.5929677201
 20
-182.8695158755
 10
365.2880313351
 20
-182.2010721685
 10
362.9554222607
 20
-181.3715314947
 10
360.601987282
 20
-180.3833287614
 10
358.2346343131
 20
-179.2393645881
 10
355.860312121
 20
-177.9429967928
 10
353.4859899288
 20
-176.498030536
 10
351.1186369599
 20
-174.908707151
 10
348.7652019812
 20
-173.1796916956
 10
346.4325929069
 20
-171.3160592579
 10
344.1276565218
 20
-169.3232800605
 10
341.8571583848
 20
-167.2072034034
 10
339.62776297
 20
-164.9740404955
 10
337.4460141045
 20
-162.6303462226
 10
335.3183157613
 20
-160.1829999074
 10
333.2509132617
 20
-157.6391851171
 10
331.2498749437
 20
-155.0063685778
 10
329.32107435
 20
-152.2922782576
 10
327.4701729878
 20
-149.5048806834
 10
325.7026037107
 20
-146.6523575569
 10
324.0235547719
 20
-143.7430817395
 10
322.4379545957
 20
-140.7855926759
 10
320.9504573111
 20
-137.7885713283
 10
319.5654290908
 20
-134.7608146963
 10
318.2869353353
 20
-131.711209995
 10
317.1187287403
 20
-128.6487085689
 10
316.0642382812
 20
-125.5822996176
 10
315.1265591487
 20
-122.5209838106
 10
314.3084436629
 20
-119.4737468672
 10
313.6122931954
 20
-116.4495331822
 10
313.04015112
 20
-113.4572195712
 10
312.5936968154
 20
-110.5055892154
  0
LINE
  5
127
330
1F
100
AcDbEntity
  8
0
  6
Continuous
 62
     7
370
    25
100
AcDbLine
 10
405.3507546688
 20
-156.8672209451
 30
0.0
 11
399.1269274265
 21
-160.4601599342
 31
0.0
  0
LWPOLYLINE
  5
128
330
1F
100
AcDbEntity
  8
0
  6
Continuous
 62
     7
370
    25
100
AcDbPolyline
 90
       42
 70
   128
 43
0.0
 10
355.0201036866
 20
-86.0133458607
 10
355.4665579912
 20
-88.9649762166
 10
356.0387000666
 20
-91.9572898275
 10
356.7348505341
 20
-94.9815035125
 10
357.5529660199
 20
-98.0287404559
 10
358.4906451524
 20
-101.090056263
 10
359.5451356115
 20
-104.1564652142
 10
360.7133422065
 20
-107.2189666403
 10
361.991835962
 20
-110.2685713416
 10
363.3768641823
 20
-113.2963279737
 10
364.8643614669
 20
-116.2933493212
 10
366.4499616431
 20
-119.2508383849
 10
368.1290105819
 20
-122.1601142022
 10
369.896579859
 20
-125.0126373287
 10
371.7474812212
 20
-127.800034903
 10
373.6762818149
 20
-130.5141252232
 10
375.6773201329
 20
-133.1469417625
 10
377.7447226325
 20
-135.6907565527
 10
379.8724209757
 20
-138.1381028679
 10
382.0541698411
 20
-140.4817971408
 10
384.283565256
 20
-142.7149600487
 10
386.554063393
 20
-144.8310367058
 10
388.8589997781
 20
-146.8238159032
 10
391.1916088524
 20
-148.6874483409
 10
393.5450438311
 20
-150.4164637964
 10
395.9123968
 20
-152.0057871813
 10
398.2867189922
 20
-153.4507534382
 10
400.6610411843
 20
-154.7471212334
 10
403.0283941532
 20
-155.8910854067
 10
405.3818291319
 20
-156.87928814
 10
407.7144382062
 20
-157.7088288138
 10
410.0193745913
 20
-158.3772725208
 10
412.2898727283
 20
-158.8826572133
 10
414.5192681432
 20
-159.2234994622
 10
416.7010170087
 20
-159.3987988111
 10
418.8287153518
 20
-159.408040713
 10
420.8961178514
 20
-159.2511980407
 10
422.8971561694
 20
-158.9287311661
 10
424.8259567631
 20
-158.4415866095
 10
426.6768581253
 20
-157.7911942607
 10
428.4444274024
 20
-156.9794631821
 10
429.2841997039
 20
-156.5202525689
  0
SPLINE
  5
129
330
1F
100
AcDbEntity
  8
0
  6
Continuous
 62
     7
370
    25
100
AcDbSpline
210
0.0
220
0.0
230
1.0
 70
     8
 71
     3
 72
    15
 73
    11
 74
     0
 42
0.00000001
 43
0.00000001
 40
0.0
 40
0.0
 40
0.0
 40
0.0
 40
0.0091993628165242
 40
0.1634369118079903
 40
0.3176918567727581
 40
0.4746823546430312
 40
0.6316688691718214
 40
0.790606813270291
 40
0.9495239405313705
 40
1.0
 40
1.0
 40
1.0
 40
1.0
 10
388.6931595948842
 20
-74.6557424046653
 30
0.0
 10
388.7151975606815
 20
-74.63260740129338
 30
0.0
 10
389.106726533317
 20
-74.22158833604006
 30
0.0
 10
389.5694290893435
 20
-73.27958545767655
 30
0.0
 10
390.0430746598312
 20
-71.87465226379186
 30
0.0
 10
390.116854244499
 20
-70.40289506166722
 30
0.0
 10
389.8466880107941
 20
-68.93325742050858
 30
0.0
 10
389.1787578588417
 20
-67.54530668281052
 30
0.0
 10
388.4571329929869
 20
-66.52662804925939
 30
0.0
 10
387.8628329677277
 20
-66.05598825731072
 30
0.0
 10
387.7195717476006
 20
-65.94253641822404
 30
0.0
  0
LINE
  5
12A
330
1F
100
AcDbEntity
  8
0
  6
Continuous
 62
     7
370
    25
100
AcDbLine
 10
387.705838754
 20
-62.42760486
 30
0.0
 11
384.8769518929
 21
-64.0606864838
 31
0.0
  0
LWPOLYLINE
  5
12B
330
1F
100
AcDbEntity
  8
0
  6
Continuous
 62
     7
370
    25
100
AcDbPolyline
 90
       30
 70
   128
 43
0.0
 10
334.6533240975
 20
-103.5713885378
 10
336.5122416253
 20
-105.0962718154
 10
338.653152165
 20
-106.9907532223
 10
340.7581125262
 20
-109.0041960878
 10
342.8202911714
 20
-111.1300658898
 10
344.832995409
 20
-113.3614632303
 10
346.7896931137
 20
-115.6911462273
 10
348.6840339268
 20
-118.1115540179
 10
350.5098698654
 20
-120.6148312966
 10
352.2612752756
 20
-123.1928538097
 10
353.9325660638
 20
-125.8372547213
 10
355.5183181441
 20
-128.5394517683
 10
357.0133850422
 20
-131.2906751132
 10
358.4129145974
 20
-134.0819958061
 10
359.7123647108
 20
-136.9043547635
 10
360.9075180857
 20
-139.7485921687
 10
361.994495915
 20
-142.6054771997
 10
362.9697704698
 20
-145.4657379874
 10
363.830176548
 20
-148.3200917066
 10
364.5729217474
 20
-151.1592747035
 10
365.1955955276
 20
-153.9740725599
 10
365.6961770338
 20
-156.7553499982
 10
366.0730416553
 20
-159.4940805297
 10
366.3249662979
 20
-162.1813757495
 10
366.4511333534
 20
-164.808514183
 10
366.4511333534
 20
-167.3669695915
 10
366.3249662979
 20
-169.8484386433
 10
366.0730416553
 20
-172.244867862
 10
365.6961770338
 20
-174.5484797633
 10
365.3019015803
 20
-176.3341841179
  0
LINE
  5
12C
330
1F
100
AcDbEntity
  8
0
  6
Continuous
 62
     7
370
    25
100
AcDbLine
 10
355.903715008
 20
-91.3037989882
 30
0.0
 11
317.617665769
 21
-113.4058647582
 31
0.0
  0
LWPOLYLINE
  5
12D
330
1F
100
AcDbEntity
  8
0
  6
Continuous
 62
     7
370
    25
100
AcDbPolyline
 90
        3
 70
   128
 43
0.0
 10
436.5293653441
 20
-133.0676410367
 10
436.0567276797
 20
-135.3336367147
 10
436.0125796989
 20
-135.5137785268
  0
LINE
  5
12E
330
1F
100
AcDbEntity
  8
0
  6
Continuous
 62
     7
370
    25
100
AcDbLine
 10
394.1029584729
 20
-157.5598843914
 30
0.0
 11
399.7792540023
 21
-154.2830287321
 31
0.0
  0
LINE
  5
12F
330
1F
100
AcDbEntity
  8
0
  6
Continuous
 62
     7
370
    25
100
AcDbLine
 10
433.6358424525
 20
-134.7380362467
 30
0.0
 11
436.5293653441
 21
-133.0676410367
 31
0.0
  0
LWPOLYLINE
  5
130
330
1F
100
AcDbEntity
  8
0
  6
Continuous
 62
     7
370
    25
100
AcDbPolyline
 90
       49
 70
   128
 43
0.0
 10
317.617665769
 20
-113.4058647582
 10
318.0903034334
 20
-116.2175562681
 10
318.6892279684
 20
-119.0663611642
 10
319.4124368245
 20
-121.9427542527
 10
320.2575118985
 20
-124.8371180965
 10
321.2216276182
 20
-127.7397751719
 10
322.30156039
 20
-130.6410202264
 10
323.4936993773
 20
-133.5311527283
 10
324.7940585736
 20
-136.4005093019
 10
326.1982901299
 20
-139.2394960372
 10
327.7016988921
 20
-142.0386205682
 10
329.2992580998
 20
-144.7885238109
 10
330.9856261933
 20
-147.4800112567
 10
332.7551646739
 20
-150.1040837144
 10
334.6019569562
 20
-152.6519674001
 10
336.5198281511
 20
-155.1151432725
 10
338.5023657117
 20
-157.4853755176
 10
340.5429408743
 20
-159.7547390852
 10
342.6347308221
 20
-161.9156461872
 10
344.7707414976
 20
-163.9608716678
 10
346.9438309883
 20
-165.8835771616
 10
349.1467334056
 20
-167.6773339577
 10
351.3720831793
 20
-169.3361444952
 10
353.6124396847
 20
-170.8544624159
 10
355.860312121
 20
-172.2272111096
 10
358.1081845573
 20
-173.4498006876
 10
360.3485410627
 20
-174.5181433293
 10
362.5738908364
 20
-175.4286669507
 10
364.7767932537
 20
-176.1783271474
 10
366.9498827443
 20
-176.7646173741
 10
369.0858934198
 20
-177.1855773253
 10
371.1776833676
 20
-177.4397994895
 10
373.2182585302
 20
-177.5264338558
 10
375.2007960908
 20
-177.4451907557
 10
377.1186672857
 20
-177.1963418316
 10
378.9654595681
 20
-176.7807191287
 10
380.7349980486
 20
-176.1997123127
 10
382.4213661422
 20
-175.4552640238
 10
384.0189253498
 20
-174.549863381
 10
385.5223341121
 20
-173.4865376594
 10
386.9265656683
 20
-172.2688421688
 10
388.2269248646
 20
-170.9008483658
 10
389.4190638519
 20
-169.3871302408
 10
390.4989966237
 20
-167.7327490245
 10
391.4631123434
 20
-165.943236265
 10
392.3081874174
 20
-164.0245753332
 10
393.0313962736
 20
-161.9831814166
 10
393.6303208085
 20
-159.8258800694
 10
394.1029584729
 20
-157.5598843914
  0
LINE
  5
131
330
1F
100
AcDbEntity
  8
0
  6
Continuous
 62
     7
370
    25
100
AcDbLine
 10
372.5881277332
 20
-56.9664993004
 30
0.0
 11
273.5931783671
 21
-114.115067128
 31
0.0
  0
LINE
  5
132
330
1F
100
AcDbEntity
  8
0
  6
Continuous
 62
     7
370
    25
100
AcDbLine
 10
372.5881277332
 20
-62.6822849836
 30
0.0
 11
273.5931783671
 21
-119.8308528112
 31
0.0
  0
LINE
  5
133
330
1F
100
AcDbEntity
  8
0
  6
Continuous
 62
     7
370
    25
100
AcDbLine
 10
273.5931783671
 20
-114.115067128
 30
0.0
 11
273.5931783671
 21
-119.8308528112
 31
0.0
  0
LINE
  5
134
330
1F
100
AcDbEntity
  8
0
  6
Continuous
 62
     7
370
    25
100
AcDbLine
 10
273.5931783671
 20
-119.8308528112
 30
0.0
 11
284.1997800849
 21
-125.9539136499
 31
0.0
  0
LINE
  5
135
330
1F
100
AcDbEntity
  8
0
  6
Continuous
 62
     7
370
    25
100
AcDbLine
 10
372.5881277332
 20
-53.7003360529
 30
0.0
 11
273.5931783671
 21
-110.8489038805
 31
0.0
  0
LINE
  5
136
330
1F
100
AcDbEntity
  8
0
  6
Continuous
 62
     7
370
    25
100
AcDbLine
 10
273.5931783671
 20
-110.8489038805
 30
0.0
 11
276.4220652282
 21
-112.4819855042
 31
0.0
  0
LINE
  5
137
330
1F
100
AcDbEntity
  8
0
  6
Continuous
 62
     7
370
    25
100
AcDbLine
 10
372.5881277332
 20
-47.9845503697
 30
0.0
 11
273.5931783671
 21
-105.1331181973
 31
0.0
  0
LINE
  5
138
330
1F
100
AcDbEntity
  8
0
  6
Continuous
 62
     7
370
    25
100
AcDbLine
 10
273.5931783671
 20
-105.1331181973
 30
0.0
 11
273.5931783671
 21
-110.8489038805
 31
0.0
  0
LINE
  5
139
330
1F
100
AcDbEntity
  8
0
  6
Continuous
 62
     7
370
    25
100
AcDbLine
 10
317.617665769
 20
-113.4058647582
 30
0.0
 11
312.5936968154
 21
-110.5055892154
 31
0.0
  0
LINE
  5
13A
330
1F
100
AcDbEntity
  8
0
  6
Continuous
 62
     7
370
    25
100
AcDbLine
 10
399.1269274265
 20
-160.4601599342
 30
0.0
 11
394.1029584729
 21
-157.5598843914
 31
0.0
  0
LWPOLYLINE
  5
13B
330
1F
100
AcDbEntity
  8
0
  6
Continuous
 62
     7
370
    25
100
AcDbPolyline
 90
       22
 70
   128
 43
0.0
 10
412.4999224277
 20
-27.7054589087
 10
412.5013418249
 20
-27.6240847949
 10
412.6145830791
 20
-26.9770457801
 10
412.9061510058
 20
-26.3488722828
 10
413.3684941488
 20
-25.7558336665
 10
413.9896380635
 20
-25.2132893199
 10
414.7534954488
 20
-24.7352908565
 10
415.6402827997
 20
-24.3342181856
 10
416.6270327896
 20
-24.0204588785
 10
417.688189112
 20
-23.8021391366
 10
418.7962683757
 20
-23.6849133265
 10
419.9225719097
 20
-23.671817535
 10
421.0379290441
 20
-23.7631909364
 10
422.1134526151
 20
-23.9566670074
 10
423.121287127
 20
-24.2472348196
 10
424.0353301954
 20
-24.6273688191
 10
424.831908585
 20
-25.0872237351
 10
425.4903913339
 20
-25.6148895669
 10
425.9937240847
 20
-26.1967000464
 10
426.3288707837
 20
-26.817586588
 10
426.4871513073
 20
-27.4614685563
 10
426.4999224277
 20
-27.7054589087
  0
LWPOLYLINE
  5
13C
330
1F
100
AcDbEntity
  8
0
  6
Continuous
 62
     7
370
    25
100
AcDbPolyline
 90
       24
 70
   128
 43
0.0
 10
365.7598070576
 20
-18.7205905766
 10
367.0264749885
 20
-18.0633605858
 10
368.4069799037
 20
-17.4875791144
 10
369.8856801308
 20
-16.9997699965
 10
371.4458214054
 20
-16.6054603045
 10
373.0697267035
 20
-16.3091177246
 10
374.7389965291
 20
-16.1140999368
 10
376.4347173881
 20
-16.0226165704
 10
378.1376760856
 20
-16.0357041685
 10
379.828577419
 20
-16.1532144436
 10
381.4882628008
 20
-16.373815957
 10
383.0979273321
 20
-16.6950092057
 10
384.6393328709
 20
-17.1131549417
 10
386.0950146763
 20
-17.6235154068
 10
387.4484792919
 20
-18.2203080129
 10
388.6843914227
 20
-18.8967708613
 10
389.7887476905
 20
-19.6452393578
 10
390.7490352975
 20
-20.4572330551
 10
391.5543738014
 20
-21.3235517403
 10
392.1956383951
 20
-22.2343796764
 10
392.6655632945
 20
-23.1793968189
 10
392.9588240628
 20
-24.1478957461
 10
393.0720979382
 20
-25.1289029781
 10
393.0735155566
 20
-25.2518554712
  0
ARC
  5
13D
330
1F
100
AcDbEntity
  8
0
  6
Continuous
 62
     7
370
    25
100
AcDbCircle
 10
368.9763889626
 20
-25.975420351
 30
0.0
 40
7.935928062126171
100
AcDbArc
 50
113.9111147484
 51
174.7687442939
  0
ENDSEC
  0
SECTION
  2
OBJECTS
  0
DICTIONARY
  5
C
330
0
100
AcDbDictionary
281
     1
  3
ACAD_GROUP
350
D
  3
ACAD_LAYOUT
350
1A
  3
ACAD_MLINESTYLE
350
17
  3
ACAD_PLOTSETTINGS
350
19
  3
ACAD_PLOTSTYLENAME
350
E
  3
ACAD_SCALELIST
350
47
  3
DWGPROPS
350
13E
  0
DICTIONARY
  5
D
102
{ACAD_REACTORS
330
C
102
}
330
C
100
AcDbDictionary
281
     1
  0
DICTIONARY
  5
1A
102
{ACAD_REACTORS
330
C
102
}
330
C
100
AcDbDictionary
281
     1
  3
Layout1
350
1E
  3
Layout2
350
26
  3
Model
350
22
  0
DICTIONARY
  5
17
102
{ACAD_REACTORS
330
C
102
}
330
C
100
AcDbDictionary
281
     1
  3
Standard
350
18
  0
DICTIONARY
  5
19
102
{ACAD_REACTORS
330
C
102
}
330
C
100
AcDbDictionary
281
     1
  0
ACDBDICTIONARYWDFLT
  5
E
102
{ACAD_REACTORS
330
C
102
}
330
C
100
AcDbDictionary
281
     1
  3
Normal
350
F
100
AcDbDictionaryWithDefault
340
F
  0
DICTIONARY
  5
47
102
{ACAD_REACTORS
330
C
102
}
330
C
100
AcDbDictionary
281
     1
  3
A0
350
48
  3
A1
350
49
  3
A2
350
4A
  3
A3
350
4B
  3
A4
350
4C
  3
A5
350
4D
  3
A6
350
4E
  3
A7
350
4F
  3
A8
350
50
  3
A9
350
51
  3
B0
350
52
  3
B1
350
53
  3
B2
350
54
  3
B3
350
55
  3
B4
350
56
  3
B5
350
57
  3
B6
350
58
  3
B7
350
59
  3
B8
350
5A
  3
B9
350
5B
  3
C0
350
5C
  3
C1
350
5D
  3
C2
350
5E
  3
C3
350
5F
  3
C4
350
60
  3
C5
350
61
  3
C6
350
62
  3
C7
350
63
  3
C8
350
64
  3
C9
350
65
  3
D0
350
66
  3
D1
350
67
  3
D2
350
68
  0
XRECORD
  5
13E
102
{ACAD_REACTORS
330
C
102
}
330
C
100
AcDbXrecord
280
     1
  1
DWGPROPS COOKIE
  2

  3

  4

  6

  7

  8
b.kav
  9

300
=
301
=
302
=
303
=
304
=
305
=
306
=
307
=
308
=
309
=
 40
0.0
 41
2459741.489468866
 42
2459741.489468982
  1

 90
        0
  0
LAYOUT
  5
1E
102
{ACAD_REACTORS
330
1A
102
}
330
1A
100
AcDbPlotSettings
  1

  2
none_device
  4

  6

 40
0.0
 41
0.0
 42
0.0
 43
0.0
 44
0.0
 45
0.0
 46
0.0
 47
0.0
 48
0.0
 49
0.0
140
0.0
141
0.0
142
1.0
143
1.0
 70
   688
 72
     1
 73
     0
 74
     5
  7

 75
    16
147
1.0
148
0.0
149
0.0
100
AcDbLayout
  1
Layout1
 70
     1
 71
     1
 10
0.0
 20
0.0
 11
420.0
 21
297.0
 12
0.0
 22
0.0
 32
0.0
 14
1.0000000000E+20
 24
1.0000000000E+20
 34
1.0000000000E+20
 15
-1.0000000000E+20
 25
-1.0000000000E+20
 35
-1.0000000000E+20
146
0.0
 13
0.0
 23
0.0
 33
0.0
 16
1.0
 26
0.0
 36
0.0
 17
0.0
 27
1.0
 37
0.0
 76
     0
330
1B
  0
LAYOUT
  5
26
102
{ACAD_REACTORS
330
1A
102
}
330
1A
100
AcDbPlotSettings
  1

  2
none_device
  4

  6

 40
0.0
 41
0.0
 42
0.0
 43
0.0
 44
0.0
 45
0.0
 46
0.0
 47
0.0
 48
0.0
 49
0.0
140
0.0
141
0.0
142
1.0
143
1.0
 70
   688
 72
     1
 73
     0
 74
     5
  7

 75
    16
147
1.0
148
0.0
149
0.0
100
AcDbLayout
  1
Layout2
 70
     1
 71
     2
 10
0.0
 20
0.0
 11
0.0
 21
0.0
 12
0.0
 22
0.0
 32
0.0
 14
0.0
 24
0.0
 34
0.0
 15
0.0
 25
0.0
 35
0.0
146
0.0
 13
0.0
 23
0.0
 33
0.0
 16
1.0
 26
0.0
 36
0.0
 17
0.0
 27
1.0
 37
0.0
 76
     0
330
23
  0
LAYOUT
  5
22
102
{ACAD_REACTORS
330
1A
102
}
330
1A
100
AcDbPlotSettings
  1

  2
none_device
  4
Letter_(8.50_x_11.00_Inches)
  6

 40
6.35
 41
6.35
 42
6.35000508
 43
6.35000508
 44
215.9
 45
279.4
 46
0.0
 47
0.0
 48
0.0
 49
0.0
140
0.0
141
0.0
142
1.0
143
1.0
 70
  1712
 72
     1
 73
     0
 74
     0
  7

 75
     0
147
1.0
148
0.0
149
0.0
100
AcDbLayout
  1
Model
 70
     1
 71
     0
 10
0.0
 20
0.0
 11
279.4
 21
215.9
 12
0.0
 22
0.0
 32
0.0
 14
0.0
 24
0.0
 34
0.0
 15
279.4
 25
215.9
 35
0.0
146
0.0
 13
0.0
 23
0.0
 33
0.0
 16
1.0
 26
0.0
 36
0.0
 17
0.0
 27
1.0
 37
0.0
 76
     0
330
1F
331
29
  0
MLINESTYLE
  5
18
102
{ACAD_REACTORS
330
17
102
}
330
17
100
AcDbMlineStyle
  2
Standard
 70
     0
  3

 62
   256
 51
90.0
 52
90.0
 71
     2
 49
0.5
 62
   256
  6
BYLAYER
 49
-0.5
 62
   256
  6
BYLAYER
  0
ACDBPLACEHOLDER
  5
F
102
{ACAD_REACTORS
330
E
102
}
330
E
  0
SCALE
  5
48
102
{ACAD_REACTORS
330
47
102
}
330
47
100
AcDbScale
 70
     0
300
1:1
140
1.0
141
1.0
290
     1
  0
SCALE
  5
49
102
{ACAD_REACTORS
330
47
102
}
330
47
100
AcDbScale
 70
     0
300
1:2
140
1.0
141
2.0
290
     0
  0
SCALE
  5
4A
102
{ACAD_REACTORS
330
47
102
}
330
47
100
AcDbScale
 70
     0
300
1:4
140
1.0
141
4.0
290
     0
  0
SCALE
  5
4B
102
{ACAD_REACTORS
330
47
102
}
330
47
100
AcDbScale
 70
     0
300
1:5
140
1.0
141
5.0
290
     0
  0
SCALE
  5
4C
102
{ACAD_REACTORS
330
47
102
}
330
47
100
AcDbScale
 70
     0
300
1:8
140
1.0
141
8.0
290
     0
  0
SCALE
  5
4D
102
{ACAD_REACTORS
330
47
102
}
330
47
100
AcDbScale
 70
     0
300
1:10
140
1.0
141
10.0
290
     0
  0
SCALE
  5
4E
102
{ACAD_REACTORS
330
47
102
}
330
47
100
AcDbScale
 70
     0
300
1:16
140
1.0
141
16.0
290
     0
  0
SCALE
  5
4F
102
{ACAD_REACTORS
330
47
102
}
330
47
100
AcDbScale
 70
     0
300
1:20
140
1.0
141
20.0
290
     0
  0
SCALE
  5
50
102
{ACAD_REACTORS
330
47
102
}
330
47
100
AcDbScale
 70
     0
300
1:30
140
1.0
141
30.0
290
     0
  0
SCALE
  5
51
102
{ACAD_REACTORS
330
47
102
}
330
47
100
AcDbScale
 70
     0
300
1:40
140
1.0
141
40.0
290
     0
  0
SCALE
  5
52
102
{ACAD_REACTORS
330
47
102
}
330
47
100
AcDbScale
 70
     0
300
1:50
140
1.0
141
50.0
290
     0
  0
SCALE
  5
53
102
{ACAD_REACTORS
330
47
102
}
330
47
100
AcDbScale
 70
     0
300
1:100
140
1.0
141
100.0
290
     0
  0
SCALE
  5
54
102
{ACAD_REACTORS
330
47
102
}
330
47
100
AcDbScale
 70
     0
300
2:1
140
2.0
141
1.0
290
     0
  0
SCALE
  5
55
102
{ACAD_REACTORS
330
47
102
}
330
47
100
AcDbScale
 70
     0
300
4:1
140
4.0
141
1.0
290
     0
  0
SCALE
  5
56
102
{ACAD_REACTORS
330
47
102
}
330
47
100
AcDbScale
 70
     0
300
8:1
140
8.0
141
1.0
290
     0
  0
SCALE
  5
57
102
{ACAD_REACTORS
330
47
102
}
330
47
100
AcDbScale
 70
     0
300
10:1
140
10.0
141
1.0
290
     0
  0
SCALE
  5
58
102
{ACAD_REACTORS
330
47
102
}
330
47
100
AcDbScale
 70
     0
300
100:1
140
100.0
141
1.0
290
     0
  0
SCALE
  5
59
102
{ACAD_REACTORS
330
47
102
}
330
47
100
AcDbScale
 70
     0
300
1/128" = 1'-0"
140
0.0078125
141
12.0
290
     0
  0
SCALE
  5
5A
102
{ACAD_REACTORS
330
47
102
}
330
47
100
AcDbScale
 70
     0
300
1/64" = 1'-0"
140
0.015625
141
12.0
290
     0
  0
SCALE
  5
5B
102
{ACAD_REACTORS
330
47
102
}
330
47
100
AcDbScale
 70
     0
300
1/32" = 1'-0"
140
0.03125
141
12.0
290
     0
  0
SCALE
  5
5C
102
{ACAD_REACTORS
330
47
102
}
330
47
100
AcDbScale
 70
     0
300
1/16" = 1'-0"
140
0.0625
141
12.0
290
     0
  0
SCALE
  5
5D
102
{ACAD_REACTORS
330
47
102
}
330
47
100
AcDbScale
 70
     0
300
3/32" = 1'-0"
140
0.09375
141
12.0
290
     0
  0
SCALE
  5
5E
102
{ACAD_REACTORS
330
47
102
}
330
47
100
AcDbScale
 70
     0
300
1/8" = 1'-0"
140
0.125
141
12.0
290
     0
  0
SCALE
  5
5F
102
{ACAD_REACTORS
330
47
102
}
330
47
100
AcDbScale
 70
     0
300
3/16" = 1'-0"
140
0.1875
141
12.0
290
     0
  0
SCALE
  5
60
102
{ACAD_REACTORS
330
47
102
}
330
47
100
AcDbScale
 70
     0
300
1/4" = 1'-0"
140
0.25
141
12.0
290
     0
  0
SCALE
  5
61
102
{ACAD_REACTORS
330
47
102
}
330
47
100
AcDbScale
 70
     0
300
3/8" = 1'-0"
140
0.375
141
12.0
290
     0
  0
SCALE
  5
62
102
{ACAD_REACTORS
330
47
102
}
330
47
100
AcDbScale
 70
     0
300
1/2" = 1'-0"
140
0.5
141
12.0
290
     0
  0
SCALE
  5
63
102
{ACAD_REACTORS
330
47
102
}
330
47
100
AcDbScale
 70
     0
300
3/4" = 1'-0"
140
0.75
141
12.0
290
     0
  0
SCALE
  5
64
102
{ACAD_REACTORS
330
47
102
}
330
47
100
AcDbScale
 70
     0
300
1" = 1'-0"
140
1.0
141
12.0
290
     0
  0
SCALE
  5
65
102
{ACAD_REACTORS
330
47
102
}
330
47
100
AcDbScale
 70
     0
300
1-1/2" = 1'-0"
140
1.5
141
12.0
290
     0
  0
SCALE
  5
66
102
{ACAD_REACTORS
330
47
102
}
330
47
100
AcDbScale
 70
     0
300
3" = 1'-0"
140
3.0
141
12.0
290
     0
  0
SCALE
  5
67
102
{ACAD_REACTORS
330
47
102
}
330
47
100
AcDbScale
 70
     0
300
6" = 1'-0"
140
6.0
141
12.0
290
     0
  0
SCALE
  5
68
102
{ACAD_REACTORS
330
47
102
}
330
47
100
AcDbScale
 70
     0
300
1'-0" = 1'-0"
140
12.0
141
12.0
290
     0
  0
ENDSEC
  0
EOF
